Oops, an error
Loading. Please wait.

Vienen Con Alegría Tab

73 views 1 this week
no commentswrite comment
1 2 3 4 5
3 more votes to show rating
add to favorites
launch autoscroll
font size
0
reset
how to read this tab
guitar tuner
×
Best way to learn
"Vienen Con Alegría"
Autoscroll
slow
fast
+/-
esc
set tempo
stop
   D                                             A7     D
E----------------------------------------------------------
B---------------7-7------------------------------7-7-------
G-7--7-----7--9-----9--7---7-7-7-7--7-7-----7--9-----9--7--
D-------7--------------------------------7-----------------
A----------------------------------------------------------
E----------------------------------------------------------
  Vienen con alegria señor cantando Vienen con alegria señor

    G                   D      Bm        Em       A7   D D7
E----------------------------------------------------------
B-12-12-12-12-10----12-10-10----------------------------10-
G----------------12----------12-11-----11-9-9--11-12-11----
D----------------------------------------------------------
A----------------------------------------------------------
E----------------------------------------------------------
 Los que caminan por la vida señor  Sembrando tu paz y amor
   G                    D       Bm       Em       A7  D  
E----------------------------------------------------------
B-12-12-12-12-10----12-10-10--------------10-10------------
G----------------12----------12-11-----12-------12-11-9----
D-------------------------------------------------------12-
A----------------------------------------------------------
E----------------------------------------------------------
 Los que caminan por la vida señor  Sembrando tu paz y amor


   D               A7                                 D               
E----------------------------------------------------------
B----------------------------------------------------------
G-------------7-8-10--8---------------------------------7--
D-7-7-----7-9-----------9-------9-9-9-9---9-9-9-9---7-9----
A-------7--------------------------------------------------
E----------------------------------------------------------
 Vienen trayendo la esperanza A un mundo cargado de ansiedad
  
  D                 A7                                D
E----------------------------------------------------------
B----------------------------------------------------------
G-------------7-8-10--8------------------------------------
D-7-7-----7-9-----------9-------9-9-9-9---9-9-9-9--7-6-7---
A-------7--------------------------------------------------
E----------------------------------------------------------
un mundo que busca y que no alcanza caminos de amor y de amistad
Suggest correction
Give kudos to tab author, rate the tab!
1 2 3 4 5
comments
print report bad tab
guest
You may want to rate the tab now too:
select rating
Wanna post a correction for this tab? Suggest correction