Oops, an error
Loading. Please wait.

Vive Bass Tab

13 views 1 this week
no commentswrite comment
1 2 3 4 5
3 more votes to show rating
add to favorites
launch autoscroll
font size
0
reset
guitar tuner
×
Best way to learn
"Vive"
Autoscroll
slow
fast
+/-
esc
set tempo
stop
De Miauri
En esta cancion hay que tener mayor cuidado con los silencios
tambien la manera de tocar escuchen la cancion pa guiarse
pongan el bajo en metalico
o toquen lo mas cerca al inicio de la cuerda
por su ultima pastilla


Intro
E|-----|
A|--0--|
D|-----|
G|-----|

Vive...todo el mundo
E|---|-------|---|---2-|
A|-5-|-5-4-4-|-2-|-2---|
D|---|-------|---|-----|
G|---|-------|---|-----|

vida a todo aquello
E|--3-|-333-|-32-|-222-|-20-|-000-||-5-5-5-|
A|----|-----|----|-----|----|-----||-------|
D|----|-----|----|-----|----|-----||-------|
G|----|-----|----|-----|----|-----||-------|

atte. miauricio gatolar

Vive...Dios amor
E|---|-------|---|---2-|
A|-5-|-5-4-4-|-2-|-2---|
D|---|-------|---|-----|
G|---|-------|---|-----|

Dios que cada
E|--3-|-333-|-32-|-222-|-20-|-000-||-5-5-5-|
A|----|-----|----|-----|----|-----||-------|
D|----|-----|----|-----|----|-----||-------|
G|----|-----|----|-----|----|-----||-------|

Viento que           Rompiendo
E|--------|--|-5-|--|-------|--|-2-|-3-333-|--|--------|
A|--5-555-|--|---|--|-5-555-|--|---|-------|--|-5-555--|
D|--------|--|---|--|-------|--|---|-------|--|--------|
G|--------|--|---|--|-------|--|---|-------|--|--------|

Parece que hay
E|--------|--|--|-5------|--|-2-2-|-3-333-|--|-5-------|
A|--5-555-|--|--|--5-555-|--|-----|-------|--|--5-555--|
D|--------|--|--|--------|--|-----|-------|--|---------|
G|--------|--|--|--------|--|-----|-------|--|---------|

Danzando
E|----------|-2-2-|-23-3-|-----|-------|
A|--5-7-----|-----|------|-5-5-|-55-5--|
D|------4-5-|-----|------|-----|-------|
G|----------|-----|------|-----|-------|

Volando
E|----------|-2-22-|-23-33-|---|-5-55--|
A|--5-7-----|------|-------|-5-|-------|
D|------4-5-|------|-------|---|-------|
G|----------|------|-------|---|-------|

Vive...todo el mundo
E|---|-------|---|---2-|
A|-5-|-5-4-4-|-2-|-2---|
D|---|-------|---|-----|
G|---|-------|---|-----|

vida a todo aquello
E|--3-|-333-|-32-|-222-|-20-|-000-||-5-5-5-|
A|----|-----|----|-----|----|-----||-------|
D|----|-----|----|-----|----|-----||-------|
G|----|-----|----|-----|----|-----||-------|

Vive...Dios amor
E|---|-------|---|---2-|
A|-5-|-5-4-4-|-2-|-2---|
D|---|-------|---|-----|
G|---|-------|---|-----|

Dios que cada
E|--3-|-333-|-32-|-222-|-20-|-000-||-5-5-5-|
A|----|-----|----|-----|----|-----||-------|
D|----|-----|----|-----|----|-----||-------|
G|----|-----|----|-----|----|-----||-------|


Miro este cielo
E|--------|--|-5-|--|-------|--|-2-|-3-333-|--|--------|
A|--5-555-|--|---|--|-5-555-|--|---|-------|--|-5-555--|
D|--------|--|---|--|-------|--|---|-------|--|--------|
G|--------|--|---|--|-------|--|---|-------|--|--------|

Me dice que hay
E|--------|--|--|-5------|--|-2-2-|-3-333-|--|-5-------|
A|--5-555-|--|--|--5-555-|--|-----|-------|--|--5-555--|
D|--------|--|--|--------|--|-----|-------|--|---------|
G|--------|--|--|--------|--|-----|-------|--|---------|

Y abraza
E|----------|-2-2-|-23-3-|-----|-------|
A|--5-7-----|-----|------|-5-5-|-55-5--|
D|------4-5-|-----|------|-----|-------|
G|----------|-----|------|-----|-------|

Que late con
E|----------|-2-22-|-23-33-|---|
A|--5-7-----|------|-------|-5-|
D|------4-5-|------|-------|---|
G|----------|------|-------|---|

Un mundo que...
E|----|------|
A|--1-|-1-1--|
D|----|------|
G|----|------|

Inicio del punteo
E|-----|
A|--0--|
D|-----|
G|-----|

Punteo
E|---|-------|---|---2-|
A|-5-|-5-4-4-|-2-|-2---|
D|---|-------|---|-----|
G|---|-------|---|-----|

E|--3-|-333-|-2-|-222-|-0-|-000-||-5-5-5-|
A|----|-----|---|-----|---|-----||-------|
D|----|-----|---|-----|---|-----||-------|
G|----|-----|---|-----|---|-----||-------|

Vive
E|---|-------|---|---2-|
A|-5-|-5-4-4-|-2-|-2---|
D|---|-------|---|-----|
G|---|-------|---|-----|

Dios que cada
E|--3-|-333-|-2-|-222-|-0-|-000-||-5-5-5-|
A|----|-----|---|-----|---|-----||-------|
D|----|-----|---|-----|---|-----||-------|
G|----|-----|---|-----|---|-----||-------|

Vive, vive
E|----|---|---|-----|-5--|-----|-5--|-----|--5---|
A|--5-|-5-|-5-|-555-|--5-|-555-|--5-|-555-|-5-5--|
D|----|---|---|-----|----|-----|----|-----|------|
G|----|---|---|-----|----|-----|----|-----|------|
Suggest correction
Give kudos to tab author, rate the tab!
1 2 3 4 5
comments
print report bad tab
guest
You may want to rate the tab now too:
select rating
Wanna post a correction for this tab? Suggest correction