Oops, an error
Loading. Please wait.

Jóvenes Chords

version 1
version 1

Whole song

86 views 1 this week
no commentswrite comment
1 2 3 4 5
3 more votes to show rating
add to favorites
launch autoscroll
font size
0
reset
transpose
0
reset
display chords
guitar tuner
×
Best way to learn
"Jóvenes"
Autoscroll
slow
fast
+/-
esc
set tempo
stop
G                   Em
Jóvenes, éramos tan jóvenes
   G                Em
soñaba yo, y soñabas tú.
    G  D                               
Y fue....la   
G          C
verdadera razón
       G            D          G
de mi vida, nuestros sueños sin temor.

Los jóvenes quieren ser felices,
los jóvenes buscan la amistad.
Y al fin son de la vida el lugar
que prefiero porque tienen la verdad.

C                     G
Vivida ya en tus ojos, la felicidad,
D
de verme aquí, junto a ti....... que alegría siento en mi.

Jóvenes, somos aun tan jóvenes,
el tiempo sigue sin pasar.
Y son tus besos y tus recuerdos
que vuelven y que guardan nuestro amor.


PARTE INSTRUMENTAL

E|--7------------|-------------|-----------------------------|
B|----10-8---8-8-|-8-7---------|-----------------------------|
G|---------9-----|-----9-7-9-9-|-9-7-------------------------|
A|---------------|-------------|-----10-9-10-10-10-9-7----7-7|
E|---------------|-------------|-----------------------10----|
(Bis)


ARPREGIOS DE BAJO:

 ****SOL****    ***mim***     ***DÔ***   ***RE
G|----------    |-------     |-- -----   |-----2
D|----------    |-------     |---2-5--   |--0-4
A|---2-5----    |----2--     |--3---3-   |-------
E|--3----3--    |-0-2--0     |--------   |-------

Sigue estos apregios a los acrodes de la canción
Suggest correction
Give kudos to tab author, rate the tab!
1 2 3 4 5
comments
print report bad tab
guest
You may want to rate the tab now too:
select rating
Wanna post a correction for this tab? Suggest correction