Oops, an error
Loading. Please wait.

Jóvenes Chords

version 2
version 2

Whole song

25 views 1 this week
no commentswrite comment
1 2 3 4 5
2 more votes to show rating
add to favorites
launch autoscroll
font size
0
reset
transpose
0
reset
simplify chords
display chords
guitar tuner
Autoscroll
slow
fast
+/-
esc
set tempo
stop
Help us to improve Ultimate-Guitar.com Take our survey!
×
Los Mustang   Jóvenes

Intro:    G                Em           C      D  G

E|-7-5-----------|--------------|-----------------------|
B|----8-5-8-8-8--|-8-7-5--5-5-5-|-5---------------------|
G|---------------|-------7------|---7-5-4-5-5-5-4-------|
D|---------------|--------------|-----------------7-5-7-|


G              Em
Jóvenes éramos tan jóvenes
G                 Em
Soñaba yo y soñabas tú.
G       D  G          C
Y fue?..la verdadera razón
      G             D          G       C   D
De mi vida nuestros sueños sin temor

    G                   Em
Los jóvenes quieren ser felices
    G                   Em
Los jóvenes buscan la amistad
     G   D   G             C
Y al fin son de la vida el lugar
     G           D             G      G7
Que prefiero por que tienen la verdad.

Estribillo

C                        G
Brilla ya en tus ojos, la felicidad
A              A7             D           D7
De verme aquí junto a ti??.   que alegria siento en mi.


G                      Em
Jóvenes  somos aún tan jóvenes
     G               Em
Y el tiempo sigue sin pasar
  G   D   G           C
Y son tus besos y tus recuerdos
    G             D               G
Que vuelven y que guardan nuestro amor

Punteo- estribillo

Acordes:    C   D   Em   G   A  D7  A7  G7

            E|-0---2---0---3---5---2---5---3
            B|-1---3---0---3---5---1---5---3
            G|-0---2---0---4---6---2---6---4
            D|-2---0---2---5---7---0---5---3
            A|-3---x---2---5---7---x---7---5
            E|-x---x---0---3---5---x---5---3
Suggest correction
Give kudos to tab author, rate the tab!
1 2 3 4 5
comments
print report bad tab
guest
You may want to rate the tab now too:
select rating
Wanna post a correction for this tab? Suggest correction