Oops, an error
Loading. Please wait.

Déjenme Ser Tab

16 views 1 this week
no commentswrite comment
1 2 3 4 5
3 more votes to show rating
add to favorites
×
Save as Personal and add changes to this tab that will be seen only by you. Learn more ›
×
You can save this tab as Personal to edit and correct it or add notes. All changes will be seen only by you. Learn more »
save as personal
new!
launch autoscroll
font size
0
reset
how to read this tab
guitar tuner
Autoscroll
slow
fast
+/-
esc
set tempo
stop
INTRO
    C               G               Am              F 
e --------------------------------------------------------------- 
B --1-------1-------0-------0-------1-------1---1---1-------3---- 
G --0-------0-------0-------0-------2-------2---2---2-------2---- 
D --2-------2-------0-------0-------2-------2---2---2-------3---- 
A --3-------3-----------------------0-------0---0---0-------3---- 
E --------------0-2-3-------3-------------------3---1-------1---- 

    C               G               F              C
e --------------------------------------------------------------| 
B --1-------1-------0-------0--------------------1--------------| 
G --0-------0-------0-------0-----2----0---------0--------------| 
D --2-------2-------0-------0-----3----2----3----2--------------| 
A --3-------3-------------------------------5----3--------------| 
E --------------0-2-3-------3-----------------------------------| 

  C           G
A veces me pregunto
         Am             F
si en la vida se llega a ser feliz
  C              G            F    
encuentro mil respuestas y no sé.

               C
e --------------------------------|
B -----------------1--------------|
G --2----0---------0--------------|
D --3----2----3----2--------------|
A ------------5----3--------------|
E --------------------------------|

   C           G
La gente me confunde
     Am               F
sabe nada y todo a la vez
C            G                F
a los cuatro vientos les diré.

               C
e --------------------------------|
B -----------------1--------------|
G --2----0---------0--------------|
D --3----2----3----2--------------|
A ------------5----3--------------|
E --------------------------------|

     Am            G
Déjenme, ser feliz
     F            C
déjenme, encontrar
C         G           F      
solo mi camino, déjenme.

               C
e --------------------------------|
B -----------------1--------------|
G --2----0---------0--------------|
D --3----2----3----2--------------|
A ------------5----3--------------|
E --------------------------------|      
  
    C            G
Mis padres han dejado
         Am            F
la buena huella en mi corazón
C               G             F 
amor, respeto y desición a la verdad.
           
               C
e --------------------------------|
B -----------------1--------------|
G --2----0---------0--------------|
D --3----2----3----2--------------|
A ------------5----3--------------|
E --------------------------------|

   C            G
Es cierto tengo que aprender
      Am            F
y la luz del sol me hará saber
     C           G               F 
que sólo dios concede felicidad.

               C
e --------------------------------|
B -----------------1--------------|
G --2----0---------0--------------|
D --3----2----3----2--------------|
A ------------5----3--------------|
E --------------------------------|

     Am            G
Déjenme, ser feliz
     F            C
déjenme, encontrar
 C         G           F      
solo mi camino, déjenme . . .
               C
e --------------------------------|
B -----------------1--------------|
G --2----0---------0--------------|
D --3----2----3----2--------------|
A ------------5----3--------------|
E --------------------------------|
     Am            G
déjenme, ser feliz
     F            C
déjenme, encontrar
 C         G           F      
solo mi camino, déjenme.
               C
e --------------------------------|
B -----------------1--------------|
G --2----0---------0--------------|
D --3----2----3----2--------------|
A ------------5----3--------------|
E --------------------------------|


PUENTE
    F   Em  Dm  C   Bm  Am  G   F   C
e -------------------------------------
B -------------------------------------
G --2---0------------------------------
D --3---2---3---2---0-----------3---2--
A ----------5---3---2---3---2---3---3--
E ----------------------5---3---1---3--


    F   Em  Dm  C   Bm  Am  G   F   C
e --5---3---1---0----------------------|
B --6---5---3---1---3---1--------------|
G ------------------4---2---4---2---0--|
D --------------------------5---3---2--|
A ----------------------------------3--|
E -------------------------------------|


REQUINTO
   C              G            Am            F        C        G                    F   
e ----------------------------------------------------5-----------------------------------|
B ----------------------------5--5--5--------------------8--5--5-----------5--------------|
G -------------------------5-----------7--5--7--5--5--------------7--5--7-----7--5--7--5--|
D -------5--5-----5--5--7-----------------------------------------------------------------|
A -3--7--------7--------------------------------------------------------------------------|
E ----------------------------------------------------------------------------------------|
               C
e --------------------------------|
B -----------------1--------------|
G --2----0---------0--------------|
D --3----2----3----2--------------|
A ------------5----3--------------|
E --------------------------------|
     Am            G
Déjenme, ser feliz
     F            C
déjenme, encontrar
 C         G           F      
solo mi camino, déjenme.

               C
e --------------------------------|
B -----------------1--------------|
G --2----0---------0--------------|
D --3----2----3----2--------------|
A ------------5----3--------------|
E --------------------------------|

   C            G
Es cierto tengo que aprender
      Am            F
y la luz del sol me hará saber
     C           G               F 
que sólo dios concede felicidad.

               C
e --------------------------------|
B -----------------1--------------|
G --2----0---------0--------------|
D --3----2----3----2--------------|
A ------------5----3--------------|
E --------------------------------|

     Am            G
Déjenme, ser feliz
     F            C
déjenme, encontrar
 C         G           F      
solo mi camino, déjenme . . .
               C
e --------------------------------|
B -----------------1--------------|
G --2----0---------0--------------|
D --3----2----3----2--------------|
A ------------5----3--------------|
E --------------------------------|
     Am            G
déjenme, ser feliz
     F            C
déjenme, encontrar
 C         G           F      
solo mi camino, déjenme . . .
               C
e --------------------------------|
B -----------------1--------------|
G --2----0---------0--------------|
D --3----2----3----2--------------|
A ------------5----3--------------|
E --------------------------------|
     Am            G
déjenme, ser feliz
     F            C
déjenme, encontrar
 C         G           F      
solo mi camino, déjenme.


FINAL
    F   Em  Dm  C   Bm  Am  G   F   C
e -------------------------------------|
B -------------------------------------|
G --2---0------------------------------|
D --3---2---3---2---0-----------3---2--|
A ----------5---3---2---3---2---3---3--|
E ----------------------5---3---1---3--|
Suggest correction
Give kudos to tab author, rate the tab!
1 2 3 4 5
comments
print report bad tab
guest
Wanna post a correction for this tab? Suggest correction