Oops, an error
Loading. Please wait.

El Tiempo Es Tan Pequeño Tab

45 views 1 this week
no commentswrite comment
1 2 3 4 5
3 more votes to show rating
add to favorites
launch autoscroll
font size
0
reset
how to read this tab
guitar tuner
Autoscroll
slow
fast
+/-
esc
set tempo
stop
Help us to improve Ultimate-Guitar.com Take our survey!
×
Intro

e|--------0-------------------------------------------3-------|
b|------1---1-----------1--------------1------------1---1-----|
g|-----2------2-------0---0----------0---0--------2-------2---|
d|---2----------2---2-------2------2-------3------------------|
a|-0-----------------------------------------0--2-------------|
d|----------------3-----------0--2----------------------------|

Pre estribillo
      Mi tiempo es tan pequeño como tu esplendor
e|--3---------------------------2----------------------|
b|--2---------------------------1----------------------|
g|--3---------------------------2----------------------|
d|--0---------------------------0----------------------|
a|-----------------------------------------------------|
d|-----------------------------------------------------|

Intro X4

Pre Estribillo

Estribillo
   Ahí va se esta moviendo?  No la dejes caer?
e|---------------------------------------------------|
b|---------------------------------------------------|
g|--2------------------------------------------------|
d|--2------------------------------------------------|
a|--0-----------------------3------------------------|
d|--------------------------3------------------------|

   Ahí va se esta moviendo?  No la dejes caer?
e|---------------------------------------------------|
b|---------------------------------------------------|
g|--2------------------------------------------------|
d|--2------------------------------------------------|
a|--0-----------------------3--------------------2---|
d|--------------------------3--------------------2---|

    Que vuele?????
e|---------------------------------------------------|
b|---------------------------------------------------|
g|---------------------------------------------------|
d|---------------------------------------------------|
a|-----3---------2-----------------------------------|
d|-----3---------2-----------------------------------|

Intro X4

Pre Estribillo

Estribillo

Solo.
e|------------------------------------------------------------|
b|------------------------------------------------------------|
g|---------------------------------------5/6-6~-7-6~-7-6~-7/9-|
d|-7--9--11/12--11--9--7--7/9~~-7-----------------------------|
a|--------------------------------8--7-7----------------------|
d|------------------------------------------------------------|

Bajada con tremolo?
e|---------------------------------------------------|
b|---------------------------------------------------|
g|---------------------------------------------------|
d|---------------------------------------------------|
a|---------------------------------------------------|
d|-22-21-20-19-18-17-16-15-14-13-12-11-10-9----------|

WahWah
e|----------13-----------------15--13----------------------|
b|-13^^^^^^^^^^^-13^^^^^^^^^^^--------13^--11--13--11------|
g|----------------------------------------------------12---|
d|---------------------------------------------------------|
a|---------------------------------------------------------|
d|---------------------------------------------------------|

e|-------------------------------------------------------|
b|-12-13-13-13-12-12-12----------------------------------|
g|-12-12-12-12-12-12-12-14-12----------------------------|
d|----------------------------14^-12-14-12---------------|
a|-----------------------------------------15-14-12~~~---|
d|-------------------------------------------------------|

e|--16---15^^^^-15^-15-12----15^-15-12----15^-15-12----15^--|
b|--15^-------------------15-----------15-----------15------|
g|----------------------------------------------------------|
d|----------------------------------------------------------|
a|----------------------------------------------------------|
d|----------------------------------------------------------|

y la parte final es sobre la misma escala pero no se
entiende
nada el wah wah

Pre estribillo
Estribillo X4
Suggest correction
Give kudos to tab author, rate the tab!
1 2 3 4 5
comments
print report bad tab
guest
You may want to rate the tab now too:
select rating
Wanna post a correction for this tab? Suggest correction