Oops, an error
Loading. Please wait.

Las Entrañas Tab

40 views 1 this week
no commentswrite comment
1 2 3 4 5
3 more votes to show rating
add to favorites
launch autoscroll
font size
0
reset
how to read this tab
guitar tuner
×
Best way to learn
"Las Entrañas"
Autoscroll
slow
fast
+/-
esc
set tempo
stop
Intro:

e|----------------------------------|
B|----1---1---1---1-----1---1-------|
G|----0---0---0---0-----0---2-------|
D|----2---2---2---2-----2---2-------| 
A|----3---3---3---3-----------------|
E|----------------------------------|

Riff 1:

e|-------------------------|
B|-----1-----1-----1-------|
G|-----2-----2-----2-------|
D|-----2-----2-----2-------|
A|--2-----2-----2----------|
E|-------------------------|

Riff 2:

e|-----------0--------|
B|---------1----------|
G|-------2------------|
D|-----2--------------|
A|--0-----------------|
E|--------------------|


Riff 3:

e|---------------3---3-------------------------|
B|---1---1---x---3---3---x---1---1---x---x-----|
G|---2---2---x---0---0---x---0---0---x---x-----|
D|---2---2---x---0---0---x---2---2---x---x-----|
A|-----------x---2---2---x---3---3---x---x-----|
E|---------------3---3-------------------------|

e|---------------3---3------------------------------------|
B|---1---1---x---3---3---x---1---1---x---x--------0h1-----|
G|---2---2---x---0---0---x---0---0---x---x------0-----2---|
D|---2---2---x---0---0---x---2---2---x---x----2-----------|
A|-----------x---2---2---x---3---3---x---x--3-------------|
E|---------------3---3------------------------------------|

Riff 4/Distorsion:

e|---------------------|
B|---------------------|
G|---------------------|
D|--7---7---x---5------|
A|--7---7---x---5------|
E|--5---5---x---3------|

e|-------------------------|
B|-------------------------|
G|--------------5---5------|
D|--7---7---x---5---5------|
A|--7---7---x---3---3------|
E|--5---5---x--------------|


CANCION:

'Intro x 4'

'Riff 1'
ENTRE CORONAS Y TEMPESTAD
SE FUE TU ALMA
QUIZAS TENTADA POR LA ANSIEDAD
'Riff 2'
TRATANDO DE ESCAPAR

'Intro x 4'

'Riff 1'
TU SENTIMIENTO YA SE APAGO
SE FUE MUY LEJOS
CON TANTAS LINEAS DE INFORMACION 
'Riff 2'
TU ALMA SE ESCAPO

'Riff 3'
YO SE QUE AHORA ESTOY EN PAZ
'Riff 3'
PUES MIS PALABRAS VAS A ENCONTRAR
'Riff 3'
NINGUNA PENA PODRA OPACAR
'Riff 3'
EL SUEÑO ETERNO EN QUE VIAJO

'Intro x 2'

QUIZAS NO CREAS EN MI
QUE PUEDO HACER
LA LEY DEL JUEGO ES ASI
HAY QUE APRENDER
PARA CRECER

'Riff 4'
Y SE QUE AHORA ESTOY EN PAZ
'Riff 4'
PUES MIS PALABRAS VAS A ENCONTRAR
'Riff 4'
NINGUNA PENA PODRA OPACAR
'Riff 4'
EL SUEÑO ETERNO EN QUE VIAJO

'Intro/Distorsion x 1'

'Riff 4'
Y SE QUE AHORA ESTOY EN PAZ
'Riff 4'
PUES MIS PALABRAS VAS A ENCONTRAR
'Riff 4'
NINGUNA PENA PODRA OPACAR
'Riff 4'
EL SUEÑO ETERNO EN QUE VIAJO

'Intro x 4'
'Riff 2'
Suggest correction
Give kudos to tab author, rate the tab!
1 2 3 4 5
comments
print report bad tab
guest
You may want to rate the tab now too:
select rating
Wanna post a correction for this tab? Suggest correction