Oops, an error
Loading. Please wait.

Quién Pudiera? Tab

36 views 1 this week
no commentswrite comment
1 2 3 4 5
3 more votes to show rating
add to favorites
launch autoscroll
font size
0
reset
how to read this tab
guitar tuner
×
Best way to learn
"Quién Pudiera?"
Autoscroll
slow
fast
+/-
esc
set tempo
stop
Nota 6 cuerda en RE

Intro
1|---------|
2|---------|
3|---------|
4|-8-7-8---|
5|-6-5-6-8-|
6|-------8-|

Riff 1
1|------------------------------------------------------------------|
2|------------------------------------------------------------------|
3|------------------3/4-----------------5/7-------------------------|
4|------------------3/4-----------------5/7-----------------5-4-5-2-|
5|-7----------------1/2-----------------3/5-----------------3-2-3-0-|
6|-7-777-777-777-7------7-777-777-777-7-----7-777-777-777-7---------|


A
Porque alguna vez pequé
Entonces comprendí       D5-C5-D5#-G5#

A
Que podía apreciar, dolor
Y se poso en ti          D5-C5-D5#-G5#


F5                     A5
Porque nuestro dios no cree en mí
F5              A5
Nuestro dios no piensa en mí
G5              F5          D5
Nuestro dios al fin te eligió a ti


A5      G5    F5#     F5     D5
Quien pudiera ser mortal como tu
F5
Para desangrar
A5      G5    F5#     F5     D5
Quien pudiera ser mortal como tu
F5                    D5
Para desangrarme y morir
F5         E5           A5
Para desangrarme y morir

Riff 1

Repite Igual

Porque alguna vez monte
Mi cabalgata al fin
Y hacia donde fui?
No se, tampoco me importó

Porque nuestro dios no piensa en mí
Nuestro dios no cree en mí
Nuestro dios al fin te eligió a ti

Quien pudiera ser mortal como tu
Para desangrar
Quien pudiera ser mortal como tu
Para desangrarme y morir
Para desangrarme y morir

Pre-Solo

Riff 1
1|------------------------------------------------------------------|
2|------------------------------------------------------------------|
3|------------------3/4-----------------5/7-------------------------|
4|------------------3/4-----------------5/7-----------------7-5-8---|
5|-7----------------1/2-----------------3/5-----------------5-3-6-6-|
6|-7-777-777-777-7------7-777-777-777-7-----7-777-777-777-7-------6-|


Solo Sobre

F5-A5
F5-A5
F5-A5-D5

Quien pudiera ser mortal como tu
Para desangrar
Quien pudiera ser mortal como tu
Para desangrarme y morir
Para desangrarme y morir


Fin:
1|-----------|
2|-----------|
3|-----------|
4|-----------|
5|-8-8-6-6-7-|
6|-8-8-6-6-7-|
Suggest correction
Give kudos to tab author, rate the tab!
1 2 3 4 5
comments
print report bad tab
guest
You may want to rate the tab now too:
select rating
Wanna post a correction for this tab? Suggest correction