Oops, an error
Loading. Please wait.

Río Extraño Tab

132 views 1 this week
no commentswrite comment
1 2 3 4 5
3 more votes to show rating
add to favorites
launch autoscroll
font size
0
reset
how to read this tab
guitar tuner
×
Best way to learn
"Río Extraño"
Autoscroll
slow
fast
+/-
esc
set tempo
stop
Nota: Sexta Cuerda en RE (d)

Intro:
1|--------------------|------------------
2|--------------------|------------------
3|-----------------x2-|---------------x2-
4|---------10-9-10----|---------8--------
5|---------8--7-8-----|---------8---7----
6|-0-0-0-0------------|-8-8-8-8-8-8------


Riff 1
1|-----------------
2|-----------------
3|-----------------
4|---------10-9-10-
5|---------8--7-8--
6|-0-0-0-0---------

Riff 2
1|---------------
2|---------------
3|---------------
4|---------8------
5|---------8---7-
6|-8-8-8-8-8-8---

Riff 3
1|-----------------
2|-----------------
3|-----------------
4|---------5-4-----
5|---------5-4-----
6|-5-5-5-5-5-4-(5)-


Queda el Bajo
D                                     A5#
Ese rumor te hizo temblar y te desesperó
D                                       D5#
Tanto escuchar, tanto decir, tanto destrozar
         G5           A5#  C5    F5
Poderoso río extraño hunde su rumor


Estribillo: siempro cada Riff se toca 2 Veces

Riff 1
Si lo tuyo es tuyo
Riff 2             Riff 3
Nada hay que ceder
No lo olvides
Riff 2
Deben entender


Repite
Riff 1 x4


Repite Todo Igual

Para empezar tienes que ver
Lo que en tu alma sembró
Tanto penar, tanto reír, tanto despertar
Poderoso río extraño hunde su rumor

Si lo tuyo es tuyo
Nada hay que ceder
No lo olvides
Deben entender

Riff 1
Te estaré esperando
Riff 2       Riff 3
Al anochecer
              Riff 2
No lo olvides, yo siempre estaré


Riff 4
Arpregio: siempre lleva una secuancia logica
1|--------------------------------------------
2|--------------------------------------------
3|-----5----5-----5-----5----5------6-----6---
4|---3---3----3-----3-----3----3------4-----4-
5|-5------5-----5-----5-----5-----6-----6-----
6|--------------------------------------------

1|----------------------------------------------------
2|----------------------------------------------------
3|-----3----3-----3-----3---------3-----3-----3-----3-
4|---1---1----1-----1-----1-----1---1-----1-----1-----
5|-3-------3----3-----3-----3-2-------2-----2-----2---
6|----------------------------------------------------


Solo sobre

Riff 1
Riff 2
Riff 3
Riff 2

(Es igual al Estribillo)


D                                    D5#
Tanto penar, tanto reír, tanto despertar
         G5           A5#  C5    F5
Poderoso río extraño hunde su rumor


solo de Bata

Riff 1
Si lo tuyo es tuyo
Riff 2             Riff 3
Nada hay que ceder
No lo olvides
Riff 2
Deben entender

Riff 1
Te estaré esperando
Riff 2       Riff 3
Al anochecer
              Riff 2
No lo olvides, yo siempre estaré

Va repitiendo

Final sobre lo que seria el Estribillo y Fade Out

Nota:el F5 de esta cancion es el mas agudo y no que aparece aqui abajo

Notas con la Afinacion Drop D (sexta cuerda en RE)

   D   D#  E   F   F#  G   G#  A   A#  B   C    C#   D
e|---|---|---|---|---|---|---|---|---|---|----|----|----|
b|---|---|---|---|---|---|---|---|---|---|----|----|----|
g|---|---|---|---|---|---|---|---|---|---|----|----|----|
d|-0-|-1-|-2-|-3-|-4-|-5-|-6-|-7-|-8-|-9-|-10-|-11-|-12-|
a|-0-|-1-|-2-|-3-|-4-|-5-|-6-|-7-|-8-|-9-|-10-|-11-|-12-|
d|-0-|-1-|-2-|-3-|-4-|-5-|-6-|-7-|-8-|-9-|-10-|-11-|-12-|


Corregi un par de Errores... espero les suene mejor ahora...
sugerencias a mi mail...
Suggest correction
Give kudos to tab author, rate the tab!
1 2 3 4 5
comments
print report bad tab
guest
You may want to rate the tab now too:
select rating
Wanna post a correction for this tab? Suggest correction