Oops, an error
Loading. Please wait.

El Que Más Tab

by Obus
137 views 1 this week
no commentswrite comment
1 2 3 4 5
3 more votes to show rating
add to favorites
launch autoscroll
font size
0
reset
how to read this tab
guitar tuner
×
Best way to learn
"El Que Más"
Autoscroll
slow
fast
+/-
esc
set tempo
stop
INTRO:
|------------------------------------|
|------------------------------------|
|-2--2-5-4-2------2--2-5-4-2------2--|
|-2--2-5-4-2-0-0--2--2-5-4-2-0-0--2--|
|-0--0------------0--0------------0--|
|------------------------------------|2x
PM           . .             . .

|---------------------------------------------------------|
|---------------------------------------------------------|
|-2--2-----------2--2-----------2--2-----------------7----|
|-2--2-----------2--2-----------2--2------------5----7----|
|-0--0-0-0-0-0-0-0--0-0-0-0-0-0-0--0-0-0-0-0-0--5----5----|
|-----------------------------------------------3---------|2x
PM     . . . . .      . . . . .      . . . . .


ESTROFA:
|---------------------------------------------------------|
|---------------------------------------------------------|
|-2--2-----------2--2-----------------7----2--2-5-4-2-----|
|-2--2-----------2--2------------5----7----2--2-5-4-2-0-0-|
|-0--0-0-0-0-0-0-0--0-0-0-0-0-0--5----5----0--0-----------|
|--------------------------------3------------------------|3x
PM     . . . . .      . . . . .                       . .

|------------------------------------------|
|------------------------------------------|
|-2--2-----------2--2-----------------7----|
|-2--2-----------2--2------------5----7----|
|-0--0-0-0-0-0-0-0--0-0-0-0-0-0--5----5----|
|--------------------------------3---------|
PM     . . . . .      . . . . .

|----------------------------------------------------|
|----------------------------------------------------|
|----------------------------------------------------|
|-3------------------------------5----5----5/--------|
|-3------------------------------5----5----5/--------|
|-1-1-1-1-1-1-1-1-1-1-1-1-1-1-1--3----3----3/--------|
PM  . .. . . . .  . . . . . . .


ESTRIBILLO:
|----------------------------------------------|
|----------------------------------------------|
|-5--------2-----------------------------------|
|-5----5---2-----------------3--------5--------|
|-3----5---0--0-0-0-0-0-0-0--3--------5--------|
|------3---------------------1--------3--------|3X
PM            . . . . . . .

|-------------------------------------|
|-------------------------------------|
|-5--------2--------------------------|
|-5----5---2-----------------3--------|
|-3----5---0--0-0-0-0-0-0-0--3--------|
|------3---------------------1--------|
PM            . . . . . . .

|-----------------------------------------------------------|
|-----------------------------------------------------------|
|----------------------------------7------7------7------7/--|
|------5------5------5------5------7------7------7------7/--|
|------5------5------5------5--5-5-5--5-5-5--5-5-5--5-5-5/--|
|--3-3-3--3-3-3--3-3-3--3-3-3-------------------------------|
PM . .    . .    . .    . .    . .    . .    . .    . .


PUENTE:
|-----------------------------------------------------------|
|-----------------------------------------------------------|
|-2--2-5-4-2------2--2-5-4-2------2--2-5-4-2-----------7----|
|-2--2-5-4-2-0-0--2--2-5-4-2-0-0--2--2-5-4-2-0-0--5----7----|
|-0--0------------0--0------------0--0------------5----5----|
|-------------------------------------------------3---------|2x
PM           . .             . .             . .


SOLO:
|---------------------------------------------|
|---------------------------------------------|
|-2--2------------------------------5---------|
|-2--2------------3--------5--------5----5----|
|-0--0-0-0-0-0-0--3--------5--------3----5----|
|-----------------1--------3-------------3----|3X
PM     . . . . .

|--------------------------|
|--------------------------|
|-2--2---------------------|
|-2--2------------3--------|
|-0--0-0-0-0-0-0--3--------|
|-----------------1--------|
PM     . . . . .

|-----------------------------------------------------------|
|-----------------------------------------------------------|
|----------------------------------7------7------7------7/--|
|------5------5------5------5------7------7------7------7/--|
|------5------5------5------5--5-5-5--5-5-5--5-5-5--5-5-5/--|
|--3-3-3--3-3-3--3-3-3--3-3-3-------------------------------|
PM . .    . .    . .    . .    . .    . .    . .    . .
Suggest correction
Give kudos to tab author, rate the tab!
1 2 3 4 5
comments
print report bad tab
guest
You may want to rate the tab now too:
select rating
Wanna post a correction for this tab? Suggest correction