Oops, an error
Loading. Please wait.

Viviré Tab

by Obus
49 views 1 this week
no commentswrite comment
1 2 3 4 5
3 more votes to show rating
add to favorites
launch autoscroll
font size
0
reset
how to read this tab
guitar tuner
×
Best way to learn
"Viviré"
Autoscroll
slow
fast
+/-
esc
set tempo
stop
|--------------|----------------|---------------------|
|--------------|----------------|---------------------|
|----2------2--|-----2------2---|---------------------|
|----2------2--|-----2------2---|---------------------|
|----0------0--|-----0------0---|-------7--7----------|
|-2------2-----|--2------2------|-0--0--------3--2--0-|


|-------------------------------------|
|-------------------------------------|
|-------------------------------------| repetir 3 veces
|-9---5-----7--7----------------------|
|-7---5-----5--5--7-----7------5------|
|-0---3-----------5-----5---3------0--|


|------------------------------------------|
|------------------------------------------|
|------------------------------------------|
|-9---5-----7--7---------------------------|
|-7---5-----5--5--7----------7----5----2---|
|-0---3-----------5----------5----3----0---|


|-------------------------------------|
|-------------------------------------|
|-------------------------------------| repetir 3 veces
|-2---5-----7--7----------------------|
|-2---5-----5--5--7-----7------5------|
|-0---3-----------5-----5---3------0--|


|------------------------------------------|
|------------------------------------------|
|------------------------------------------|
|-2---5-----7--7---------------------------|
|-2---5-----5--5--7------------------------|
|-0---3-----------5------------------------|


|---------------------------------------------|
|---------------------------------------------|
|----------------------------7----------------|
|--9--9--9---------9----7----5--------7-------|
|--7--7--7---------7----5-------------5-------|
|-----------0-0-0-----------------------------|
            · · ·

|------------------------------------------|
|------------------------------------------|
|-------------------------------7----------|
|--9--9--9---------9----7-------5--7-------|
|--7--7--7---------7----5----------5-------|
|-----------0-0-0--------------------------|
            · · ·

|---------------------------------------------|
|---------------------------------------------|
|----------------------------7----------------|
|--9--9--9---------9----7----5--------7-------|
|--7--7--7---------7----5-------------5-------|
|-----------0-0-0-----------------------------|
            · · ·

|-------------------------------------------|
|-------------------------------------------|
|-----------------------------2-------------|
|--9--9--9---------9----7-----2-------------|
|--7--7--7---------7----5-----0-------------|
|-----------0-0-0---------------------------|
            · · ·


|---------------------|
|---------------------|
|---------------------|
|---------------------|
|-------7--7----------|
|-0--0--------3--2--0-|


|-------------------------------------|
|-------------------------------------|
|-------------------------------------| repetir 3 veces
|-2---5-----7--7----------------------|
|-2---5-----5--5--7-----7------5------|
|-0---3-----------5-----5---3------0--|


|------------------------------------------|
|------------------------------------------|
|------------------------------------------|
|-2---5-----7--7---------------------------|
|-2---5-----5--5--7------------------------|
|-0---3-----------5------------------------|


|---------------------------------------------|
|---------------------------------------------|
|----------------------------7----------------|
|--9--9--9---------9----7----5--------7-------|
|--7--7--7---------7----5-------------5-------|
|-----------0-0-0-----------------------------|
            · · ·

|------------------------------------------|
|------------------------------------------|
|-------------------------------7----------|
|--9--9--9---------9----7-------5--7-------|
|--7--7--7---------7----5----------5-------|
|-----------0-0-0--------------------------|
            · · ·

|---------------------------------------------|
|---------------------------------------------|
|----------------------------7----------------|
|--9--9--9---------9----7----5--------7-------|
|--7--7--7---------7----5-------------5-------|
|-----------0-0-0-----------------------------|
            · · ·

|-------------------------------------------|
|-------------------------------------------|
|-----------------------------2-------------|
|--9--9--9---------9----7-----2-------------|
|--7--7--7---------7----5-----0-------------|
|-----------0-0-0---------------------------|
            · · ·

|----------------------------------------------------0?-0-|
|----------------------------------------------------0--1-|
|-------5---7------------5---7----------5--7--7--7---1--1-|
|-------5---7------------5---7----------5--7--7--7---2--2-| repetir 2
|-------3---5------------3---5----------3--5--5--5---2--2-|   veces
|-2--0-----------2--0-0-----------2--0---------------0--0-|


|-------------------------------------|
|-------------------------------------|
|-------------------------------------| repetir 3 veces
|-2---5-----7--7----------------------|
|-2---5-----5--5--7-----7------5------|
|-0---3-----------5-----5---3------0--|


|------------------------------------------|
|------------------------------------------|
|------------------------------------------|
|-2---5-----7--7---------------------------|
|-2---5-----5--5--7------------------------|
|-0---3-----------5------------------------|


|---------------------------------------------|
|---------------------------------------------|
|----------------------------7----------------|
|--9--9--9---------9----7----5--------7-------|
|--7--7--7---------7----5-------------5-------|
|-----------0-0-0-----------------------------|
            · · ·

|------------------------------------------|
|------------------------------------------|
|-------------------------------7----------|
|--9--9--9---------9----7-------5--7-------|
|--7--7--7---------7----5----------5-------|
|-----------0-0-0--------------------------|
            · · ·

|---------------------------------------------|
|---------------------------------------------|
|----------------------------7----------------|
|--9--9--9---------9----7----5--------7-------|
|--7--7--7---------7----5-------------5-------|
|-----------0-0-0-----------------------------|
            · · ·

|-------------------------------------------|
|-------------------------------------------|
|-----------------------------2-------------|
|--9--9--9---------9----7-----2-------------|
|--7--7--7---------7----5-----0-------------|
|-----------0-0-0---------------------------|
            · · ·


|---------------------------------------------|
|---------------------------------------------|
|----------------------------7----------------|
|--9--9--9---------9----7----5--------7-------|
|--7--7--7---------7----5-------------5-------|
|-----------0-0-0-----------------------------|
            · · ·

|------------------------------------------|
|------------------------------------------|
|-------------------------------7----------|
|--9--9--9---------9----7-------5--7-------|
|--7--7--7---------7----5----------5-------|
|-----------0-0-0--------------------------|
            · · ·

|---------------------------------------------|
|---------------------------------------------|
|----------------------------7----------------|
|--9--9--9---------9----7----5--------7-------|
|--7--7--7---------7----5-------------5-------|
|-----------0-0-0-----------------------------|
            · · ·

|-------------------------------------------|
|-------------------------------------------|
|-----------------------------2-------------|
|--9--9--9---------9----7-----2-------------|
|--7--7--7---------7----5-----0-------------|
|-----------0-0-0---------------------------|
            · · ·
Suggest correction
Give kudos to tab author, rate the tab!
1 2 3 4 5
comments
print report bad tab
guest
You may want to rate the tab now too:
select rating
Wanna post a correction for this tab? Suggest correction