Oops, an error
Loading. Please wait.

Amaría Silenciosamente Tab

by Octavia
11 views 1 this week
no commentswrite comment
1 2 3 4 5
3 more votes to show rating
add to favorites
×
Save as Personal and add changes to this tab that will be seen only by you. Learn more ›
×
You can save this tab as Personal to edit and correct it or add notes. All changes will be seen only by you. Learn more »
save as personal
new!
launch autoscroll
font size
0
reset
how to read this tab
guitar tuner
Autoscroll
slow
fast
+/-
esc
set tempo
stop
TRANSCRITO POR: Omar Miranda
14/10/2004

ACORDES:

   Am7 Dsus2  G6  G(I)  Gsus2/F   A   Em  G   D
e|--3----0----0-------------------0---0---3---2--|
B|--1----3----3-----------3-------2---0---0---3--|
G|--2----2----0-----------0-------2---0---0---2--|
D|--2----0----0----0------0-------2---2---0---0--|
A|--0---------2----2------0-------0---2---2------|
E|-----------------3------1-----------0---3------|


INTRO:
ARRIBA:  LA PARTE DE LA GUITARRA
AbAJO:   LA PARTE DEL TECLADO. ES UN CAMBIO RAPIDO Y LEVE
CADA NOTA SE RASGUEA UNA VEZ. ESCUCHA LA CANCION PARA QUE TE DES CUENTA.

   Am7                          Dsus2          G6
e|-----3--x--3------3--x--3--|--0--0--x--0--|--0--0--x--0---------------|
B|-----1--x--1------1--x--1--|--3--3--x--3--|--3--3--x--3---------------|
G|--2--2--x--2---2--2--x--2--|--2--2--x--2--|--0--0--x--0---------------|
D|--2--2--x------2--2--x-----|--0--0--x--3--|--0--0--x--0---------------|
A|--0--0--x------0--0--x-----|--------------|--2--2--x--2---------------|
E|---------------------x-----|--------------|---------------------------|
 |                           |              |                           |
 |                           |              |             G(I)  Gsus2/F |
e|---------------------------|--------------|---------------------------|
B|---------------------------|--------------|---------------------3-----|
G|---------------------------|--------------|---------------------0-----|
D|---------------------------|--------------|--------------0------0-----|
A|---------------------------|--------------|--------------2------0-----|
E|---------------------------|--------------|--------------3------1-----|


   Am7                          Dsus2          G6
e|-----3--x--3------3--x--3--|--0--0--x--0--|--0--0--x--0--|
B|-----1--x--1------1--x--1--|--3--3--x--3--|--3--3--x--3--|
G|--2--2--x--2---2--2--x--2--|--2--2--x--2--|--0--0--x--0--|
D|--2--2--x------2--2--x-----|--0--0--x--3--|--0--0--x--0--|
A|--0--0--x------0--0--x-----|--------------|--2--2--x--2--|
E|---------------------x-----|--------------|--------------|


VERSO:

Am7
Descifrar tu voz ultravioleta
Dsus2        G6
Es rozar tus alas desplegándose
Am7                           Dsus2
Regresar hasta el pecado original será
  G6
Reconocer porque te vas


CORO:

A                  Em
Y tus formas se iran
                   G
Y tus sueños se iran
                    D
Con el viento se iran
              A
Se iran, se iran

A                 Em
Y tus voces se iran
                  G
Tus matices se iran
                  D
Con el tiempo finalmente
     A
Te iras

A                       Em
Silenciosamente y así  [silenciosamente]
G                            D
Sin detalle ilustre por ti
(.......................te iras, te iras)


INERMEDIO:

   Am7                          Dsus2          G6
e|-----3--x--3------3--x--3--|--0--0--x--0--|--0--0--x--0---------------|
B|-----1--x--1------1--x--1--|--3--3--x--3--|--3--3--x--3---------------|GUITARRA
G|--2--2--x--2---2--2--x--2--|--2--2--x--2--|--0--0--x--0---------------|
D|--2--2--x------2--2--x-----|--0--0--x--3--|--0--0--x--0---------------|
A|--0--0--x------0--0--x-----|--------------|--2--2--x--2---------------|
E|---------------------x-----|--------------|---------------------------|
 |                           |              |                           |
 |                           |              |             G(I)  Gsus2/F |
e|---------------------------|--------------|---------------------------|
B|---------------------------|--------------|---------------------3-----|TECLADO
G|---------------------------|--------------|---------------------0-----|
D|---------------------------|--------------|--------------0------0-----|
A|---------------------------|--------------|--------------2------0-----|
E|---------------------------|--------------|--------------3------1-----|

   Am7                          Dsus2          G6
e|-----3--x--3------3--x--3--|--0--0--x--0--|--0--0--x--0--|
B|-----1--x--1------1--x--1--|--3--3--x--3--|--3--3--x--3--|
G|--2--2--x--2---2--2--x--2--|--2--2--x--2--|--0--0--x--0--|
D|--2--2--x------2--2--x-----|--0--0--x--3--|--0--0--x--0--|
A|--0--0--x------0--0--x-----|--------------|--2--2--x--2--|
E|---------------------x-----|--------------|--------------|


VERSO:

Am7
Respirar tus frases transparentes
Dsus2      G6           G(I)  Gsus2/F
Es oír que tus mentiras ya no mienten
Am7                                        Dsus2
Recordar [yiaa]  que nuestra unión fue material
       G6
Será reconocer que tu te iras

CORO:

A                  Em
Y tus formas se iran
                   G
Y tus sueños se iran
                    D
Con el viento se iran
              A
Se iran, se iran

A                 Em
Y tus voces se iran
                  G
Tus matices se iran
                  D
Con el tiempo finalmente
     A
Te iras

A                       Em
Silenciosamente y así  [silenciosamente]
G                            D
Sin detalle ilustre por ti
(.......................te iras, te iras)

A                  Em
Y tus formas se iran
                   G
Y tus sueños se iran
                    D
Con el viento se iran
              A
Se iran, se iran

A                 Em
Y tus voces se iran
                  G
Tus matices se iran
                  D
Con el tiempo finalmente
     A
Te iras

A                       Em
Silenciosamente y así  [silenciosamente]
G                            D
Sin detalle ilustre por ti
(.......................te iras, te iras)

SALIDA:

A Em
G D A

ESPERO QUE SEA DE TU AGRADO

CUALQUIER DUDA, CONCEJO O COMENTARIO
POR FAVOR ESCRIBIR
A MI NUEVO CORREO: omctabs@
Suggest correction
Give kudos to tab author, rate the tab!
1 2 3 4 5
comments
print report bad tab
guest
Wanna post a correction for this tab? Suggest correction