Oops, an error
Loading. Please wait.

Después De Ti Tab

version 1
version 1

Whole song

Interactive

by Octavia
127 views 1 this week
no commentswrite comment
1 2 3 4 5
3 more votes to show rating
add to favorites
×
Save as Personal and add changes to this tab that will be seen only by you. Learn more ›
×
You can save this tab as Personal to edit and correct it or add notes. All changes will be seen only by you. Learn more »
save as personal
new!
launch autoscroll
font size
0
reset
how to read this tab
guitar tuner
Autoscroll
slow
fast
+/-
esc
set tempo
stop
TRANSCRITO POR: Omar Miranda
24/07/2003

ACORDES:


    G   D  Dsus2   Em   C  Cadd9  Em7  Bb
e|--3---2----0-----0----0----0-----0---1---|
B|--3---3----3-----0----1----3-----0---3---|
G|--0---2----2-----0----0----0-----0---3---|
D|--0---0----0-----2----2----2-----0---3---|
A|--2--------------2----3----3-----2---1---|
E|--3--------------0---------------0-------|

G          D           Em    C
Se que ya nada cambiara   no nada
G         D           Em   C
Se que jamas te olvidare o no lo haré 
G          D           Em    C
Se que ya nada cambiara no nada
G         D           Em   C           Cadd9 
Se que jamas te olvidare no no lo haré 

G             D          Dsus2   D     Em          C   Cadd9 C
 Te acercas igual que el vien____to a acariciar mi piel
G             D      Dsus2   D    Em                C   Cadd9 
 Sueles encontrar la chis____pa que enciende el volcán
C     G           D   Dsus2   D   Em          C     Cadd9 C
 Y te vas, y no estas,        yo sé que nadie te atara
G               D    Dsus2   D    Em           C   Cadd9 C
 Juegas con mis sentimien____tos, dices que es amor

G         D    Dsus2   D     Em    C   Cadd9 C
Sé que ya nada cam_____biara    no nada
G        D        Dsus2   D   Em    C        Cadd9 C 
Se que jamas te olvi______dare   no no lo haré


G D Dsus2 D Em C Cadd9 C 


G             D      Dsus2   D     Em         C   Cadd9 C
 La luz del recuerdo ba______ña mi interior y así 
G               D         Dsus2   D   Em           C   Cadd9 
 Y voy buscando entre las nu______bes algo solo un beso
C    G             D     Dsus2   D   Em          C      Cadd9   C
 Aun canto por ti, muero por     ti, nada será igual después de ti
G             D      Dsus2   D     Em          C   Cadd9 C
 Tal vez tu recuerdo vuel____va a acariciar mi piel

G         D    Dsus2   D     Em    C   Cadd9 C
Sé que ya nada cam_____biara    no nada
G        D        Dsus2   D   Em    C        Cadd9 C 
Se que jamas te olvi______dare   no no lo haré


   G         D         Em       C               G         D         Em       C
e|---------|---------|--2-3---|---------------|---------|---------|----3-3--|---3-3--|
B|--1-0----|--1-0----|-----3--|--3-1-0--------|--1-0----|--1-0----|--3--3---|--3-3---|
G|------0--|------0--|--------|--------2-0-2--|------0--|------0--|---------|--------|
D|---------|---------|--------|---------------|---------|---------|---------|--------|
A|---------|---------|--------|---------------|---------|---------|---------|--------|
E|---------|---------|--------|---------------|---------|---------|---------|--------|

    G           D           Em        C            G            D            Em              C
e|--5-7-8-7--|--5-7-8-7--|--5-7-8--|--10-8-7-8--|--10-8-7-8--|--10-8-7-8--|--10-10-10-10--|--10-10-10-10--|
B|--8-8-8-8--|--8-8-8-8--|--8-8-8--|--8--8-8-8--|--8--8-8-8--|--8--8-8-8--|--8--8--8--8---|--8--8--8--8---|
G|--7-7-7-7--|--7-7-7-7--|--7-7-7--|--7--7-7-7--|--7--7-7-7--|--7--7-7-7--|--7--7--7--7---|--7--7--7--7---|
D|-----------|-----------|---------|------------|------------|------------|---------------|---------------|
A|-----------|-----------|---------|------------|------------|------------|---------------|---------------|
E|-----------|-----------|---------|------------|------------|------------|---------------|---------------|

G         D    Dsus2   D     Em    C   Cadd9 C
Sé que ya nada cam_____biara    no nada
G        D        Dsus2   D   Em    C        Cadd9 C 
Se que jamas te olvi______dare   no no lo haré
G         D    Dsus2   D     Em    C   Cadd9 C
Sé que ya nada cam_____biara    no nada
G        D        Dsus2   D   Em    C        Cadd9 C 
Se que jamas te olvi______dare   no no lo haré


G          D  Dsus2   D  Em           C  Cadd9 C 
No lo haré No lo ha___ré No lo haré jamas

G D Dsus2 D Em C Cadd9 C 
G D Dsus2 D Em C Cadd9 C 

G         D    Dsus2   D     Em    C   Cadd9 C
Sé que ya nada cam_____biara    no nada
G        D        Dsus2   D   Em    C        Cadd9 C 
Se que jamas te olvi______dare   no no lo haré

G          D  Dsus2   D  Em             C  Cadd9 C 
No lo haré No lo ha___ré   No lo haré jamas yeheee
G          D  Dsus2   D  Em    C  Em7 Bb    G
No lo haré No lo haré       No no no  no no yeheee


ESPERO QUE SEA DE TU AGRADO

CUALQUIR DUDA, CONCEJO O COMENTARIO 
POR FAVOR ESCRIBIR A: omarmc4@
Suggest correction
Give kudos to tab author, rate the tab!
1 2 3 4 5
comments
print report bad tab
guest
Wanna post a correction for this tab? Suggest correction