Oops, an error
Loading. Please wait.

Después De Ti Tab

version 2
version 2

Whole song

Interactive

53 views 1 this week
no commentswrite comment
1 2 3 4 5
3 more votes to show rating
add to favorites
launch autoscroll
font size
0
reset
how to read this tab
guitar tuner
×
Best way to learn
"Después De Ti"
Autoscroll
slow
fast
+/-
esc
set tempo
stop
Octavia 
Después de ti (TAB) 

Esta es la canción Después de Ti de Octavia que se 
grabo en vivo en la ciudad de La Paz - Bolivia.


Transcripción: Ariel C. Pampa Ch.
 
Este es el intermedio:

e ----------------------------------------| 
B ------------------7~-8~-----------------| 
G -5~-4~-0--5~-4~-0-------7--7-5-4-2-0-2--| 
D ----------------------------------------| 
A ----------------------------------------| 
E ----------------------------------------| 

------------------------------------------------|
--------------------7~-5~-5-8-5-8-5-8-5-8-5-8~--|
--5~-4~-0--5~-4~-0------------------------------|
------------------------------------------------|
------------------------------------------------|
------------------------------------------------|

-----------------|-------------------7~-|
-7-8-10-8-7-8-5~-|--8~--7-8-10-8-7-8----|
-----------------|----------------------|
-----------------|----------------------|
-----------------|----------------------|
-----------------|----------------------|

G               D                     Em           C
  Te acercas igual que el viento, a acariciar mi piel;
G               D                 Em              C
  sueles encontrar la chispa, que enciende el volcán;
        G          D       Em             C
  y te vas y no estás, yo sé que nadie te atara;
G                 D             Em            C
  juegas con mis sentimientos, dices que es amor.


   G         D          Em        C
  Sé que ya nada cambiará, no... nada
   G        D            Em       C
  sé que jamás te olvidaré oh... no lo haré.


G                D           Em      C
  La luz del recuerdo, daña mi interior... casi,
G                    D            Em            C
  y voy buscando entre las nubes, algo solo un beso,
   G                  D            Em          C
  aún canto por ti, muero por ti, nada será igual después de ti,
G                D               Em           C
  tal vez tu recuerdo vuelva a acariciar mi piel.


  Sé que ya nada... 

Pronto el el solo que va al final......

    Peticiones, correcciones, consultas, comentarios, 
consejos, reclamos, pasiones, chismes, desamores, 
intrigas, declaraciones, reconocimientos de hijos...jejeje, 
etc. mi e-mail astron_ariel@
Suggest correction
Give kudos to tab author, rate the tab!
1 2 3 4 5
comments
print report bad tab
guest
You may want to rate the tab now too:
select rating
Wanna post a correction for this tab? Suggest correction