Oops, an error
Loading. Please wait.

Después De Ti Bass

version 1
version 1

Whole song

Interactive

by Octavia
65 views 3 this week
no commentswrite comment
1 2 3 4 5
3 more votes to show rating
add to favorites
launch autoscroll
font size
0
reset
guitar tuner
×
Best way to learn
"Después De Ti"
Autoscroll
slow
fast
+/-
esc
set tempo
stop
s = slade
h = hammer/martillo
esta cancion es re facil
los unicos cambios se lo realizan al tocar C DO
bueno escuchen la cancion pa ubicarse mejor
esta la cancion enterita
saludos

Intro

     G         D       E            C
E|--3-33-3-|--------|------|-------------------|
A|---------|-5-55-5-|-7-77-|-7-5-3--------7-5--|
D|---------|--------|------|--------5h7-5------|
G|---------|--------|------|-------------------|

E|--3-33-3-|--------|------|--------77-5------|
A|---------|-5-55-5-|-7-77-|-7-5-3-------5-7--|
D|---------|--------|------|------------------|
G|---------|--------|------|------------------|

Te acercas...
E|--3-33-3-|--------|------|-----------3------|
A|---------|-5-55-5-|-7-77-|-7-5-3--55---3-5--|
D|---------|--------|------|------------------|
G|---------|--------|------|------------------|

Sueles...
E|--3-33-3-|--------|------|------------------|
A|---------|-5-55-5-|-7-77-|-7-5-3--33-0-3-5--|
D|---------|--------|------|------------------| x3
G|---------|--------|------|------------------|

Se que ya nada...
E|--3-33-3-|--------|------|-----------3------|
A|---------|-5-55-5-|-7-77-|-7-5-3--55---3-5--|
D|---------|--------|------|------------------| x2
G|---------|--------|------|------------------|

La luz...
E|--3-33-3-|--------|------|------------------|
A|---------|-5-55-5-|-7-77-|-7-5-3--33-0-3-5--|
D|---------|--------|------|------------------|
G|---------|--------|------|------------------|

Y voy buscando...
E|--3-33-3-|--------|------|-------------------|
A|---------|-5-55-5-|-7-77-|-7-5-3--------7-5--|
D|---------|--------|------|--------5h7-5------|
G|---------|--------|------|-------------------|

Aun canto
E|--3-33-3-|--------|------|------------------|
A|---------|-5-55-5-|-7-77-|-7-5-3--33-0-3-5--|
D|---------|--------|------|------------------| x2
G|---------|--------|------|------------------|

Se que ya nada...
E|--3-33-3-|--------|------|------------------|
A|---------|-5-55-5-|-7-77-|-7-5-3--33-0-3-5--|
D|---------|--------|------|------------------| x2
G|---------|--------|------|------------------|

Solo
E|--3-33-3-|--------|------|------------------|
A|---------|-5-55-5-|-7-77-|-7-5-3--33-0-3-5--|
D|---------|--------|------|------------------| x4
G|---------|--------|------|------------------|

Se que ya nada...
E|--3-33-3-|--------|------|-------------------|
A|---------|-5-55-5-|-7-77-|-7-5-3--------7-5--|
D|---------|--------|------|--------5h7-5------|
G|---------|--------|------|-------------------|

Se que jamas
E|--3-33-3-|--------|------|------------------|
A|---------|-5-55-5-|-7-77-|-7-5-3--33-0-3-5--|
D|---------|--------|------|------------------| x3
G|---------|--------|------|------------------|

No lo hare
E|--33-5-3--33-5-3-|-----------------|-7---77----|-----------------|
A|-----------------|--55-7-5--55-7-5-|---7----7--|-33-5-3--33-5-3--|
D|-----------------|-----------------|-----------|-----------------| x5
G|-----------------|-----------------|-----------|-----------------|

Uh, uh, uh
E|--3-33-3-|--------|--------|--------3--|
A|---------|-5-55-5-|-7-77-7-|-3-33-5----|
D|---------|--------|--------|-----------|
G|---------|--------|--------|-----------|

dudas un mensaje a mi correo

atte. miauricio gatolar
"si ya triunfaste en el dolor una vez, lo haras siempre"
Suggest correction
Give kudos to tab author, rate the tab!
1 2 3 4 5
comments
print report bad tab
guest
You may want to rate the tab now too:
select rating
Wanna post a correction for this tab? Suggest correction