Oops, an error
Loading. Please wait.

Después De Ti Tab

version 3
version 3

Whole song

Interactive

by Octavia
68 views 1 this week
no commentswrite comment
1 2 3 4 5
3 more votes to show rating
add to favorites
launch autoscroll
font size
0
reset
how to read this tab
guitar tuner
×
Best way to learn
"Después De Ti"
Autoscroll
slow
fast
+/-
esc
set tempo
stop
    1     2     3    4
e|-----|-----|--O--|----
B|-----|-----|-----|----
G|-----|-----|-----|----
D|-----|-----|-----|----
A|-----|--O--|-----|----
E|-----|-----|--O--|----

         (G)

    1    2    3    4             1     2     3     4
e|-----|-----|--O--|----     e|-----|-----|-----|----
B|-----|--O--|-----|----     B|-----|--O--|-----|----
G|-----|-----|--O--|----     G|-----|-----|--O--|----
D|-----|-----|-----|----     D|-----|-----|-----|----
A|-----|-----|-----|----     A|-----|-----|-----|----
E|-----|-----|-----|----     E|-----|-----|-----|----

          (D)                         (Dsus2)

    1    2    3    4
e|-----|-----|-----|----
B|-----|-----|-----|----
G|-----|-----|-----|----
D|-----|--O--|-----|----
A|-----|--O--|-----|----
E|-----|-----|-----|----

         (Em)

    1    2    3    4             1     2     3     4
e|-----|-----|-----|----     e|-----|-----|-----|----
B|--O--|-----|-----|----     B|-----|-----|--O--|----
G|-----|-----|-----|----     G|-----|-----|-----|----
D|-----|--O--|-----|----     D|-----|--O--|-----|----
A|-----|-----|--O--|----     A|-----|-----|--O--|----
E|-----|-----|--O--|----     E|-----|-----|-----|----

         (C)                           (Cadd9)

(G, D, Dsus2, D, Em, C, Cadd9, C) esto va por toda la canción


Te acercas igual que el viento a acariciar mi piel
Sueles encontrar la chispa que enciende el volcán
Y te vas, y no estas, yo sé que nadie te atara
Juegas con mis sentimientos, dices que es amor

CORO

Sé que ya nada cambiara    no nada
Se que jamás te olvidare    no no lo haré


La luz del recuerdo baña mi interior y así
Y voy buscando entre las nubes algo solo un beso
Aun canto por ti, muero por ti, nada será igual después de ti
Tal vez tu recuerdo vuelva a acariciar mi piel

CORO

Sé que ya nada cambiara    no nada
Se que jamás te olvidare   no no lo haré


PARTE INTERMEDIA

(G, D, Dsus2, D, Em, C, Cadd9, C)

e|-------|-------|-------|------------|-------|-------|-------|---------|
B|-------|-------|-7-8---|------------|-------|-------|---5---|--8-8-8--|
G|-4--5--|-4--5--|-------|-7-5-4------|-4--5--|-4--5--|-7-----|-7-7-7-7-|
D|------5|------5|-------|-------7-5-7|------5|------5|-------|---------|
A|-------|-------|-------|------------|-------|-------|-------|---------|
E|-------|-------|-------|------------|-------|---------------|---------|

(G, D, Dsus2, D, Em, C, Cadd9, C)

e|---------5--------------|---------5--------7------|
B|-8---7-8---8-7-8--------|-8---7-8----8-7-8--------|
G|-----------------7------|-------------------------|
D|------------------------|-------------------------|
A|------------------------|-------------------------|
E|------------------------|-------------------------|
CORO

Sé que ya nada cambiara    no nada
Se que jamás te olvidare   no no lo haré

Sé que ya nada cambiara    no nada
Se que jamás te olvidare   no no lo haré

e|----------------------------------------|
B|----------------------------------------|
G|----------------------------------------|
D|----------------------------------------|
A|--------------------5-5-7-5--5-5-7-5----|
E|--3-3-5-3--3-3-5-3----------------------|

e|----------------------------------------|
B|----------------------------------------|
G|----------------------------------------|
D|----------------------------------------|
A|---------------------3-3-5-3--3-3-5-3---|
E|--0-0-2-0--0-0-2-0----------------------|
(solo)
muy pronto

Sé que ya nada cambiara    no nada
Se que jamás te olvidare   no no lo haré

Sé que ya nada cambiara    no nada
Se que jamás te olvidare   no no lo haré
Suggest correction
Give kudos to tab author, rate the tab!
1 2 3 4 5
comments
print report bad tab
guest
You may want to rate the tab now too:
select rating
Wanna post a correction for this tab? Suggest correction