Oops, an error
Loading. Please wait.

Después De Ti Bass Tab

version 2
version 2

Whole song

Interactive

23 views 1 this week
no commentswrite comment
1 2 3 4 5
3 more votes to show rating
add to favorites
launch autoscroll
font size
0
reset
guitar tuner
×
Best way to learn
"Después De Ti"
Autoscroll
slow
fast
+/-
esc
set tempo
stop
Bueno esta cancion es facilísima son solo dos partes, se alternan,
escuchen la cancion para ubicarse mejor

G|----------------------------|---------------|
D|----------------------------|---5h7-5-------|
A|----------5-5-55-5-7-7-77-7-|-3-------7-5---|
E|-3-3-33-3-------------------|-------------3-|


G|----------------------------|---------------|
D|----------------------------|---------------|
A|----------5-5-55-5-7-7-77-7-|-3-5-----------|
E|-3-3-33-3-------------------|-----5-5-5-3---|
Suggest correction
Give kudos to tab author, rate the tab!
1 2 3 4 5
comments
print report bad tab
guest
You may want to rate the tab now too:
select rating
Wanna post a correction for this tab? Suggest correction