Oops, an error
Loading. Please wait.

Espantapájaros Tab

by Octavia
23 views 1 this week
no commentswrite comment
1 2 3 4 5
3 more votes to show rating
add to favorites
×
Save as Personal and add changes to this tab that will be seen only by you. Learn more ›
×
You can save this tab as Personal to edit and correct it or add notes. All changes will be seen only by you. Learn more »
save as personal
new!
launch autoscroll
font size
0
reset
how to read this tab
guitar tuner
Autoscroll
slow
fast
+/-
esc
set tempo
stop
TRANSCRITO POR: Omar Miranda
04/03/2005

ACORDES:

    Em  G  D  A  C C#5  B5  A5
e|--0---3--2--0--0-------------|
B|--0---3--3--2--1-------------|
G|--0---0--2--2--0--6---4---2--|
D|--2---0--0--2--2--6---4---2--|
A|--2---2-----0--3--4---2---0--|
E|--0---3----------------------|


INTRO:

    Em    G     D       \
e|--7--|--7--|--5--5--|  |
B|--8--|--8--|--7--7--|  |
G|--9--|--7--|--7--7--|  |> *3
D|--9--|-----|--7--7--|  |
A|--7--|-----|--5--5--|  |
E|-----|-----|--------|  |
                        /


VERSO:

    Em       G        D
e|--7----|---7----|---5-------5--|
B|--8----|---8----|---7-------7--|
G|--9----|---7----|---7-------7--|
D|--9----|--------|---7-------7--|
A|--7----|--------|---5-------5--|
E|-------|--------|--------------|
    Aquí estaré hasta el final

    Em         G          D
e|--7-----|----7-----|----5--------------5--|
B|--8-----|----8-----|----7--------------7--|
G|--9-----|----7-----|----7--------------7--|
D|--9-----|----------|----7--------------7--|
A|--7-----|----------|----5--------------5--|
E|--------|----------|----------------------|
    Siempre de pie y resistiendo al temporal

            Em          G           D
e|----------7----|------7----|------5-----------5--|
B|----------8----|------8----|------7-----------7--|
G|----------9----|------7----|------7-----------7--|
D|----------9----|-----------|------7-----------7--|
A|----------7----|-----------|------5-----------5--|
E|---------------|-----------|---------------------|
    Con los brazos extendidos en clara señal de libertad

    Em       G         D
e|--7----|---7-----|---5-------5--|
B|--8----|---8-----|---7-------7--|
G|--9----|---7-----|---7-------7--|
D|--9----|---------|---7-------7--|
A|--7----|---------|---5-------5--|
E|-------|---------|--------------|
    Presenciare a la vida pasar


CORO:

    A           C           G                D
e|------0----|------0----|------3---------|--2---------2----|
B|-------2---|-------1---|-------3--------|---3---------3---|
G|----2---2--|----0---0--|--------0-------|----2---------2--|
D|---2-------|---2-------|----0-----------|-----------------|
A|--0--------|--3--------|---2------------|-----------------|
E|-----------|-----------|--3-------------|-----------------|
    Uhh.................... Soy centinela de todos los vientos

    A           C           G                    D
e|------0----|------0----|------3-------------|--2-------2----|
B|-------2---|-------1---|-------3------------|---3-------3---|
G|----2---2--|----0---0--|--------0-----------|----2-------2--|
D|---2-------|---2-------|----0---------------|---------------|
A|--0--------|--3--------|---2----------------|---------------|
E|-----------|-----------|--3-----------------|---------------|
    Uhh.................... Soy el que espera de brazos abiertos

    A           C           G                 D
e|------0----|------0----|------3----------|--2------------2----|
B|-------2---|-------1---|-------3---------|---3------------3---|
G|----2---2--|----0---0--|--------0--------|----2------------2--|
D|---2-------|---2-------|----0------------|--------------------|
A|--0--------|--3--------|---2-------------|--------------------|
E|-----------|-----------|--3--------------|--------------------|
    Uhh.................... Cuido un silencio el fruto del tiempo

    A           C           G            D         Em
e|------0----|------0----|------3-----|--2---2-----7----|
B|-------2---|-------1---|-------3----|---3---3----8----|
G|----2---2--|----0---0--|--------0---|----2---2---9----|
D|---2-------|---2-------|----0-------|------------9----|
A|--0--------|--3--------|---2--------|------------7----|
E|-----------|-----------|--3---------|-----------------|
    Uhh.................... Soy el que espanta pájaros


INTERMEDIO:

    Em    G     D       \
e|--7--|--7--|--5--5--|  |
B|--8--|--8--|--7--7--|  |
G|--9--|--7--|--7--7--|  |> *2
D|--9--|-----|--7--7--|  |
A|--7--|-----|--5--5--|  |
E|-----|-----|--------|  |
                        /


VERSO:

    Em        G          D
e|--7-----|---7------|---5--------5--|
B|--8-----|---8------|---7--------7--|
G|--9-----|---7------|---7--------7--|
D|--9-----|----------|---7--------7--|
A|--7-----|----------|---5--------5--|
E|--------|----------|---------------|
    Vienen de mí de toda dirección

    Em      G            D
e|--7----|--7--------|---5----------5--|
B|--8----|--8--------|---7----------7--|
G|--9----|--7--------|---7----------7--|
D|--9----|-----------|---7----------7--|
A|--7----|-----------|---5----------5--|
E|-------|-----------|-----------------|
    Ecos de voces que yo nunca imagine

      Em            G          D
e|----7----|--------7----|-----5-----------------5--|
B|----8----|--------8----|-----7-----------------7--|
G|----9----|--------7----|-----7-----------------7--|
D|----9----|-------------|-----7-----------------7--|
A|----7----|-------------|-----5-----------------5--|
E|---------|-------------|--------------------------|
  Susurrándome y contandome el mundo que hay más allá del sol

    Em       G        D
e|--7----|---7----|---5-------5--|
B|--8----|---8----|---7-------7--|
G|--9----|---7----|---7-------7--|
D|--9----|--------|---7-------7--|
A|--7----|--------|---5-------5--|
E|-------|--------|--------------|
    Aquí estaré hasta el final


CORO:

    A           C           G                D
e|------0----|------0----|------3---------|--2---------2----|
B|-------2---|-------1---|-------3--------|---3---------3---|
G|----2---2--|----0---0--|--------0-------|----2---------2--|
D|---2-------|---2-------|----0-----------|-----------------|
A|--0--------|--3--------|---2------------|-----------------|
E|-----------|-----------|--3-------------|-----------------|
    Uhh.................... Soy centinela de todos los vientos

    A           C           G                    D
e|------0----|------0----|------3-------------|--2-------2----|
B|-------2---|-------1---|-------3------------|---3-------3---|
G|----2---2--|----0---0--|--------0-----------|----2-------2--|
D|---2-------|---2-------|----0---------------|---------------|
A|--0--------|--3--------|---2----------------|---------------|
E|-----------|-----------|--3-----------------|---------------|
    Uhh.................... Soy el que espera de brazos abiertos

    A           C           G                 D
e|------0----|------0----|------3----------|--2------------2----|
B|-------2---|-------1---|-------3---------|---3------------3---|
G|----2---2--|----0---0--|--------0--------|----2------------2--|
D|---2-------|---2-------|----0------------|--------------------|
A|--0--------|--3--------|---2-------------|--------------------|
E|-----------|-----------|--3--------------|--------------------|
    Uhh.................... Cuido un silencio el fruto del tiempo

    A           C           G            D         Em
e|------0----|------0----|------3-----|--2---2-----7----|
B|-------2---|-------1---|-------3----|---3---3----8----|
G|----2---2--|----0---0--|--------0---|----2---2---9----|
D|---2-------|---2-------|----0-------|------------9----|
A|--0--------|--3--------|---2--------|------------7----|
E|-----------|-----------|--3---------|-----------------|
    Uhh.................... Soy el que espanta pájaros


INTERMEDIO:
NOTA: Los numeros que estan entre parentesis son trastes
      que no se tocan en la cancion
      Pero te ayudara si lo tocas tu solo o a dos guitarras

    Em             C#5         B5          A5        Em
e|---------------|-----------|-----------|---------------|
B|---------------|-----------|-----------|---------------| Esta parte es eL puenteo que hace el bajo
G|---------5-7-9-|-11---9-11-|-12-11-9-7-|-5-------------|
D|--9------------|-----------|-----------|---9-7-5-9-(7)-|
A|----10-7-------|-----------|-----------|---------------|
E|---------------|-----------|-----------|---------------|

   C#5               B5             A5                Em
e|-----------------|--------------|-----------------|--------------------------|
B|---------2-------|--------------|-----------------|--------------------------| Esta parte es el acompañamiento
G|-------2---2-----|--------------|-----------------|--------------------------| del cello
D|-0-2-4-------4-2-|--------------|-------2-4-2-0-2-|--------------------------|
A|-----------------|-2-2-2-2-2-2--|-0-2-0-----------|--------------------------|
E|-----------------|--------------|-----------------|-(0)-(0)-(0)-(0)-(0)-(0)--|

   C#5             B5                        A
e|--------------|--------------------------|-0--|
B|---------2-5--|--5-3-2-3-2---2-----------|-2--|
G|-------2------|------------4---4-2-4-2---|-2--|
D|-0-2-4--------|------------------------4-|-2--|
A|--------------|--------------------------|-0--|
E|--------------|--------------------------|----|


CORO:

    A           C           G                D
e|------0----|------0----|------3---------|--2---------2----|
B|-------2---|-------1---|-------3--------|---3---------3---|
G|----2---2--|----0---0--|--------0-------|----2---------2--|
D|---2-------|---2-------|----0-----------|-----------------|
A|--0--------|--3--------|---2------------|-----------------|
E|-----------|-----------|--3-------------|-----------------|
    Uhh.................... Soy centinela de todos los vientos

    A           C           G                    D
e|------0----|------0----|------3-------------|--2-------2----|
B|-------2---|-------1---|-------3------------|---3-------3---|
G|----2---2--|----0---0--|--------0-----------|----2-------2--|
D|---2-------|---2-------|----0---------------|---------------|
A|--0--------|--3--------|---2----------------|---------------|
E|-----------|-----------|--3-----------------|---------------|
    Uhh.................... Soy el que espera de brazos abiertos

    A           C           G                 D
e|------0----|------0----|------3----------|--2------------2----|
B|-------2---|-------1---|-------3---------|---3------------3---|
G|----2---2--|----0---0--|--------0--------|----2------------2--|
D|---2-------|---2-------|----0------------|--------------------|
A|--0--------|--3--------|---2-------------|--------------------|
E|-----------|-----------|--3--------------|--------------------|
    Uhh.................... Cuido un silencio el fruto del tiempo

    A           C           G            D
e|------0----|------0----|------3-----|--2---2---------|
B|-------2---|-------1---|-------3----|---3---3--------|
G|----2---2--|----0---0--|--------0---|----2---2-------|
D|---2-------|---2-------|----0-------|----------------|
A|--0--------|--3--------|---2--------|----------------|
E|-----------|-----------|--3---------|----------------|
    Uhh.................... Soy el que espanta pájaros


SALIDA:

    A           C           G            D                \
e|------0----|------0----|------3-----|--2---2---------|   |
B|-------2---|-------1---|-------3----|---3---3--------|   |
G|----2---2--|----0---0--|--------0---|----2---2-------|   |>*3
D|---2-------|---2-------|----0-------|----------------|   |
A|--0--------|--3--------|---2--------|----------------|   |
E|-----------|-----------|--3---------|----------------|   |
    Uhh..........................................         /

    A           C           G
e|------0----|------0----|------3-----|
B|-------2---|-------1---|-------3----|
G|----2---2--|----0---0--|--------0---|
D|---2-------|---2-------|----0-------|
A|--0--------|--3--------|---2--------|
E|-----------|-----------|--3---------|
   Uhh...............................


ESPERO QUE SEA DE TU AGRADO

CUALQUIER DUDA, CONCEJO O COMENTARIO
POR FAVOR ESCRIBIR
A MI NUEVO CORREO: omctabs@
Suggest correction
Give kudos to tab author, rate the tab!
1 2 3 4 5
comments
print report bad tab
guest
Wanna post a correction for this tab? Suggest correction