Oops, an error
Loading. Please wait.

Miénteme Tab

by Octavia
12 views 1 this week
no commentswrite comment
1 2 3 4 5
3 more votes to show rating
add to favorites
launch autoscroll
font size
0
reset
how to read this tab
guitar tuner
×
Best way to learn
"Miénteme"
Autoscroll
slow
fast
+/-
esc
set tempo
stop
TRANSCRITO POR: Omar Miranda
2/01/2003

ACORDES:

    D5   G6  Dadd11  Em   G    A   E/D   E    D
e|-------0-----------0---------0---------0----2----|
G|--3----3-----3-----0---------2----5----0----3----|
B|--2----0-----0-----0----4----2----4----1----2----|
D|--0----0-----4-----2----5----2----0----2----0----|
A|-------------0-----2----5----0---------2---------|
E|-------------------0----3--------------0---------|

NOTACION:

 Deslizar: \
 Slide rápido: s  

INTRO:

 D5  G6  Dadd11  G6 *4

VERSO:
 
    D5                           D5
e|----------------------0-----|---------------------------|
G|--3---------------------3---|--3---------------------3--|
B|--2----------------------2--|--2-----------------0s2----|
D|--0-------------------------|--0------------------------|
A|----------------------------|---------------------------|
E|----------------------------|---------------------------|
    di que soy grande           que soy el mejor

    D5                                D5
e|---------------------------0-----|---------------------------|
G|--3----------------------3---3---|--3------------------------|
B|--2---------------------------2--|--2------------------------|
D|--0------------------------------|--0------------------------|
A|---------------------------------|---------------------------|
E|---------------------------------|---------------------------|
    traga tu orgullo inclínate        lame mis botas miénteme


Em   
  ya que es el castillo
G                D5      
  en el que vivo miénteme
Em
  es la burbuja 
G                 D5      G6  Dadd11  G6
  que me enseñó a respirar............ohhh  

D5  G6  Dadd11  G6
ohhhh ohhhhh

    D5                           D5
e|----------------------------|---------------------------|
G|--3--------------------3----|--3---------------------3--|
B|--2------------------2---2--|--2-----------------0s2----|
D|--0-------------------------|--0------------------------|
A|----------------------------|---------------------------|
E|----------------------------|---------------------------|
    di que me adoras            que soy un sol

    D5                   D5 E/D         D5
e|-----------------------------------|---------------------------|
G|--3---------------------3\5--------|--3------------------------|
B|--2---------------------2\4--------|--2------------------------|
D|--0---------------------0-0--------|--0------------------------|
A|-----------------------------------|---------------------------|
E|-----------------------------------|---------------------------|
    usa tu cuerpo entrégate             gánate el puesto miénteme

Em   
  ya que es el castillo
G                D5      
  en el que vivo miénteme
Em
  es la burbuja 
G                 D5      
  que me enseñó a respirar
Em
  es mi obsesión
            G
  mi perversión mi protección 
D5        
  miénteme
Em          G
  es mi equilibrio
D5        
  miénteme

    A      E       G          D5
e|---------------------3----------------------|
G|-----2-------0------3----------3------------|
B|----2-------1------4----------2-------------|
D|---2-------2------5----------0--------------|
A|--0-------2------5----------0---------3-2---|
E|---------0------3---------------------------|
           todo alrededor      es falso

    A      E                  G         D
e|------0-------------------------------2-----------|
G|-----2---------------------------------3----------|
B|----2-------1--------------------4------2---------|
D|---2-------2--------------------5-----------------|
A|--0-------2--------------------5-------------3-2--|
E|---------0--------------------3-------------------|
           todo es parte de un mundo    irreal

    A         E             G        
e|------------------------------------|
G|-----2------------------------------|
B|----2----------1-------------4------|
D|---2----------2-------------5-------|
A|--0----------2-------------5--------|
E|------------0-------------3---------|
   lo que veo lo que siento hasta el sexo 

D5      G6  Dadd11  G6
  es artificial.

D5        G6  Dadd11  G6

D5        G6  Dadd11  G6
  miénteme    
D5        G6  Dadd11  G6
  miénteme    uhh ohh
D5        G6  Dadd11  G6
  miénteme    ohh ohh ohh
D5        G6  Dadd11  G6
  miente  miénteme

Em   
  ya que es el castillo
G                D5      
  en el que vivo miénteme
Em
  es la burbuja 
G                 D5      
  que me enseñó a respirar
Em
  es mi obsesión
            G
  mi perversión mi protección 
D5        
  miénteme
Em          G
  es mi equilibrio
D5        G6  Dadd11  G6
  miénteme
D5        G6  Dadd11  G6
  miénteme  ohhhhhh ohh
D5        G6  Dadd11  G6
  miente  miénteme ohh ohh
D5        G6  Dadd11  G6
  miente  miénteme ohhh oh oh
D5        G6  Dadd11  G6
  miente  miénteme ummmm ohhh
D5        
  miente


ESPERO QUE SEA DE TU AGRADO

CUALQUIR DUDA, CONCEJO O COMENTARIO 
POR FAVOR ESCRIBIR A: omarmc4@
Suggest correction
Give kudos to tab author, rate the tab!
1 2 3 4 5
comments
print report bad tab
guest
You may want to rate the tab now too:
select rating
Wanna post a correction for this tab? Suggest correction