Oops, an error
Loading. Please wait.

Octavo Sueño Tab

by Octavia
11 views 1 this week
no commentswrite comment
1 2 3 4 5
3 more votes to show rating
add to favorites
launch autoscroll
font size
0
reset
how to read this tab
guitar tuner
×
Best way to learn
"Octavo Sueño"
Autoscroll
slow
fast
+/-
esc
set tempo
stop
TRANSCRITO POR: Omar Miranda
21/07/2003

NOTACION:

/ :DESLIZAR ABAJO
(N) :NOTA FANTASMA
S.A. : SIN ACORDE
s  :SLIDE RÁPIDO
v: VIBRATO

ACORDES:

    A5  B5   E   D5   A5(I)
e|-----------0---------------|
G|-----------0---3-----------|
B|-----------1---2------2----|
D|--7----9---2---0------2----|
A|--7----9---2----------0----|
E|--5----7---0---------------|

INTRO:

A5  B5 *11  (las notas A5 y B5 son un cambio rapido en toda la 
              cancion escuchala para que te des cuenta)
A5  B5   E     

VERSO

A5  B5   A5   B5  A5  B5  A5  B5     E
  Más allá del placer Más allá del dolor
E
Es donde quiero llevarte
A5  B5   A5   B5  A5  B5  A5  B5             E
   Donde el suelo es de sal Y el cielo es el mar
E
Que invita a navegar
A5  B5   A5   B5  A5  B5  A5  B5  E
  Ven a mí Es allí que te llevaré
E
Ven a mí Que sin ti no lo puedo hacer


D5         A5(I)
Bésame y verás
                   E
cómo te consume el fuego (fuego)
D5         A5(I)
Tócame y verás
                  E
como te domina el viento (viento)
D5       A5(I)
Sujétate bien
                   E
subiremos hasta el cielo (cielo)
D5            A5(I)
Y en una explosión
                    E   S.A.
fundiremos nuestras almas en un solo cuerpo


A5 B5   A5   B5  A5  B5  A5  B5    E
  Más allá del estrés más allá del furor
E
de este laberinto
A5 B5   A5   B5  A5  B5  A5  B5    E
  Donde no hay temor donde todo es calor
E
Es mi paraíso
A5 B5   A5   B5  A5  B5  A5  B5       E
  Ven a mí ven con buena o con mala fe
E
Cree en mí que sin ti no lo lograré. 


D5         A5(I)
Bésame y verás
                   E
cómo te consume el fuego (fuego)
D5           A5(I)
Tócame y sabras
                  E
como te domina el viento (viento)
D5            A5(I)
Y en una explosión
                    E   S.A.
fundiremos nuestras almas en un solo cuerpo


SOLO:
ESTA ES LA PARTE DEL TECLADO HECHA PARA LA GUITARRA NO ES EXACTO EN ALGUNAS PARTES 
PERO SUENA BIEN 

        B5    A5          E
e|---------|---------|-----------------------------|
G|---------|---------|-----------------------------|
B|---------|---------|-----------------------------|
D|---------|---------|------------(7)---(7)---(7)--|
A|---------|--5-4----|-----------------------------|
E|--(1)/7--|------5--|--5/7----(5)---(5)---(5)-----|

   B5       A5          E                            B5                A5          E
e|---------|---------|----------------------------|-----------------|-----------|----------|
G|---------|---------|------------9-10-9---10/12--|--(9)s10--12-10--|--12-10-9--|--10-9-9--|
B|---------|---------|--------7-9-------9---------|-----------------|-----------|----------|
D|--7-6----|--7-6----|--6-7-9------------9--------|-----------------|-----------|----------|
A|------7--|------7--|----------------------------|-----------------|-----------|----------|
E|---------|---------|----------------------------|-----------------|-----------|----------|

   E                     B5            A5                 E
e|--------------------|-------------|-------------------|-----------|
G|--------------------|-------------|----------10/12vvvv|(12)vvvvv--|
B|---7-9-7-9-7-9-7-9--|-------------|--9-8-7------------|-----------|
D|--9---9---9---9-----|--9-8-7-6----|--------9----------|-----------|
A|--------------------|----------7--|-------------------|-----------|
E|--------------------|-------------|-------------------|-----------|


D5         A5(I)
Bésame y verás
                   E
cómo te consume el fuego (fuego)
D5         A5(I)
Tócame y verás
                  E
como te domina el viento (viento)
D5       A5(I)
Sujétate bien
                   E
subiremos hasta el cielo (cielo)
D5            A5(I)
Y en una explosión
                    E   
fundiremos nuestras almas en un solo cuerpo
D5            A5(I)
Y en una explosión
                    E   
fundiremos nuestras almas en un solo cuerpo


ESPERO QUE SEA DE TU AGRADO

CUALQUIR DUDA, CONCEJO O COMENTARIO 
POR FAVOR ESCRIBIR A: omarmc4@
Suggest correction
Give kudos to tab author, rate the tab!
1 2 3 4 5
comments
print report bad tab
guest
You may want to rate the tab now too:
select rating
Wanna post a correction for this tab? Suggest correction