Oops, an error
Loading. Please wait.

Seré Tu Música Tab

version 1
version 1

Whole song

Interactive

by Octavia
56 views 1 this week
no commentswrite comment
1 2 3 4 5
3 more votes to show rating
add to favorites
×
Save as Personal and add changes to this tab that will be seen only by you. Learn more ›
×
You can save this tab as Personal to edit and correct it or add notes. All changes will be seen only by you. Learn more »
save as personal
new!
launch autoscroll
font size
0
reset
how to read this tab
guitar tuner
Autoscroll
slow
fast
+/-
esc
set tempo
stop
punteo de sere tu musica.


e|-------12-10-----------------------------------------------------------|
G|-----------------12-9-12-----12-10-------------------------------------|
B|------------------------------------12--10-12----10-8-8-10-8-----------|
D|---------------------------------------------------------------9---9---|
A|-----------------------------------------------------------------------|
E|-----------------------------------------------------------------------|

e|-----------------------------------------------------------------------|
G|-------9--11*13-11*13---13-9--------------9--11*13-11*13--13--9--------|
B|----10------------------------10------10-------------------------10----|
D|-----------------------------------------------------------------------|
A|-----------------------------------------------------------------------|
E|-----------------------------------------------------------------------|


e|-------------9---11-----------11--13-------------15--17------17*19--17*19-----19--|
G|------9---11--------------13-----------------17-------------------------------19--|
B|---10-----------------------------------------------------------------------------|
D|----------------------------------------------------------------------------------|
A|----------------------------------------------------------------------------------|
E|----------------------------------------------------------------------------------|

Este punteo va dedicado para mi amigo Jesús Urquidi (sigue tocando Jesús)
Si encuentran algun error escribanme aldito_diablito@ 
porque anque lo transcribi rapidamente puede haber algun error.
auque este punteo lo saque bien y si quiren otros punteos de octavia escribanme.
Suggest correction
Give kudos to tab author, rate the tab!
1 2 3 4 5
comments
print report bad tab
guest
Wanna post a correction for this tab? Suggest correction