Oops, an error
Loading. Please wait.

Seré Tu Música Tab

version 2
version 2

Whole song

Interactive

by Octavia
32 views 1 this week
no commentswrite comment
1 2 3 4 5
3 more votes to show rating
add to favorites
launch autoscroll
font size
0
reset
how to read this tab
guitar tuner
×
Best way to learn
"Seré Tu Música"
Autoscroll
slow
fast
+/-
esc
set tempo
stop
Aqui está el solo que tocan en el acústico y en todas sus presentaciones


e--12-10-------------------------------------------|
b--------12----10^--10-8-------8-------8-----------|
g-----------12-----------9-7-9---9-7-9---7-9^------|
d--------------------------------------------------|
a--------------------------------------------------|
E--------------------------------------------------|


e--------------------------------------------------|---------10-12--------10-12-|
b-----8-10-10^-10^-10-8---8-10-10^-10^-10-8---8----|---10/12--------10/12-------|
g---9-------------------9-------------------9------|----------------------------| 
d--------------------------------------------------|----------------------------|
a--------------------------------------------------|----------------------------|
E--------------------------------------------------|----------------------------|


e--------15-17-17^-17^-17-15----15-17-17^-17^--14-14------|
b--15/17---------------------17----------------15-15------|
g---------------------------------------------------------|
d---------------------------------------------------------|
a---------------------------------------------------------|
E---------------------------------------------------------|
Suggest correction
Give kudos to tab author, rate the tab!
1 2 3 4 5
comments
print report bad tab
guest
You may want to rate the tab now too:
select rating
Wanna post a correction for this tab? Suggest correction