Oops, an error
Loading. Please wait.

Si Mañana Tab

version 1
version 1

Whole song

by Octavia
8 views 1 this week
no commentswrite comment
1 2 3 4 5
3 more votes to show rating
add to favorites
launch autoscroll
font size
0
reset
how to read this tab
guitar tuner
×
Best way to learn
"Si Mañana"
Autoscroll
slow
fast
+/-
esc
set tempo
stop
TRANSCRITO POR: Omar Miranda
2/8/2002

ACORDES:

     A     G    G(I)   G6   G/A    D   Asus2  D5   C5    C
e----0-----3-----3-----0-----------2---------------------3------
G----2-----3-----0-----3-----0-----3----0----------------5------
B----2-----4-----0-----4-----0-----2----2-----7-----5----5------
D----2-----5-----0-----5-----0-----0----2-----7-----5----5------
A----0-----5-----2-----5-----0----------0-----5-----3----3------
E----0-----3-----3-----0---------------------------------3------


Gtr1: son las notas originales de la canción
Gtr2: es un varicion de la quena hecha para una sola guitarra
      esto te ayudara mucho si la tocas tu solo, o lo tocas a dos guitarras
      cuando rasguees sigue el ritmo de la quena
      (la Gtr2 no es parte de la version original )

NOTA: Vale aclarar que en la parte de los versos
      todas las notas son para la guitarra 1 
      a excepcion de lo indicado ya anteriormente


INTRO:
      \
 A G6 |> *2
      /

ESTA ES LA INTRODUCCION QUE HACE LA QUENA EN EL COMIENZO


Gtr1:
      A         G6                       A           G6
e|-----------------------------------|---------------------|
G|----10--------13--12-----8---10----|---10----------------| 
B|-----------------------------------|---------------------|
D|-----------------------------------|---------------------|
A|-----------------------------------|---------------------|
E|-----------------------------------|---------------------|
 |                                   |                     |
 |Gtr2:                              |                     |
 |Esta parte es una variacion        |                     |
 |de la quena hecha para la guitarra |                     |
 |                                   |                     |
 |                                   |                     |
 |    A       G(I)  D     G/A  A     |   A           G6    |
e|----0---------3---3----------0-----|---------------------|
G|----2---------0---2------0---2-----|---------------------| 
B|----2---------0---3------0---2-----|---------------------|
D|----2---------0---0------0---2-----|---------------------|
A|----0---------2----------0---0-----|---------------------|
E|----0---------3--------------0-----|---------------------|


Gtr1:
      A         G6                       A           G6
e|-----------------------------------|---------------------|
G|----10--------13--12-----8---10----|---10----------------| 
B|-----------------------------------|---------------------|
D|-----------------------------------|---------------------|
A|-----------------------------------|---------------------|
E|-----------------------------------|---------------------|
 |                                   |                     |
 |Gtr2:                              |                     |
 |    A       G(I)  D     G/A  A     |   A           G6    |
e|----0---------3---3----------0-----|---------------------|
G|----2---------0---2------0---2-----|---------------------| 
B|----2---------0---3------0---2-----|---------------------|
D|----2---------0---0------0---2-----|---------------------|
A|----0---------2----------0---0-----|---------------------|
E|----0---------3--------------0-----|---------------------|


A      G6
Y si mañana al 
      A
despertar desnudas 
   G6
tu alma
A          G6       A           G6        A
no olvides enseñarmela no oh oh no   uhhh


A      G6
Y si decides
    A 
enseñar tambien
   G6
tu cuerpo
A        G6          A             G6
no olvidare la invitacion no oh oh oh no


(OJO EN ESTA PARTE AL FINAL DEL VERSO)

G    D          A  G6
Ya mañana se vera
G      D           
hoy prefiero disfru......
 
Gtr1:
      A         G6                       A           G6
e|-----------------------------------|---------------------|
G|----10--------13--12-----8---10----|---10----------------| 
B|-----------------------------------|---------------------|
D|-----------------------------------|---------------------|
A|-----------------------------------|---------------------|
E|-----------------------------------|---------------------|
 |....taar                           |  hoy.........disfrutar
 |                                   |                     |
 |Gtr2:                              |                     |
 |    A       G(I)  D     G/A  A     |   A           G6    |
e|----0---------3---3----------0-----|---------------------|
G|----2---------0---2------0---2-----|---------------------| 
B|----2---------0---3------0---2-----|---------------------|
D|----2---------0---0------0---2-----|---------------------|
A|----0---------2----------0---0-----|---------------------|
E|----0---------3--------------0-----|---------------------|


A      G6
Y si mañana
A          G6
no te encontrara
A     G6 
dibujaria
        A        G6     A      
mi ansiedad ohhh no


A        G6
Y si encotrara en ti el cristal
A         G6    A      G6
la transparencia olvidaria 
A        G6
lo demas,lo demas, 
G6
lo demas  ahh ohh


(OJO EN ESTA PARTE AL FINAL DEL VERSO)

G    D          A  G6
Ya mañana se vera
G      D           
hoy prefiero disfru......

 
Gtr1:
      A         G6                       A           G6
e|-----------------------------------|---------------------|
G|----10--------13--12-----8---10----|---10----------------| 
B|-----------------------------------|---------------------|
D|-----------------------------------|---------------------|
A|-----------------------------------|---------------------|
E|-----------------------------------|---------------------|
 |....taar                   hoy........................mañana
 |                                   |                     |
 |Gtr2:                              |                     |
 |    A       G(I)  D     G/A  A     |   A           G6    |
e|----0---------3---3----------0-----|---------------------|
G|----2---------0---2------0---2-----|---------------------| 
B|----2---------0---3------0---2-----|---------------------|
D|----2---------0---0------0---2-----|---------------------|
A|----0---------2----------0---0-----|---------------------|
E|----0---------3--------------0-----|---------------------|


Gtr1:
      A         G6                       A           G6
e|-----------------------------------|---------------------|
G|----10--------13--12-----8---10----|---10----------------| 
B|-----------------------------------|---------------------|
D|-----------------------------------|---------------------|
A|-----------------------------------|---------------------|
E|-----------------------------------|---------------------|
 |                         se vera..........................hoy
 |                                   |                     |
 |Gtr2:                              |                     |
 |    A       G(I)  D     G/A  A     |   A           G6    |
e|----0---------3---3----------0-----|---------------------|
G|----2---------0---2------0---2-----|---------------------| 
B|----2---------0---3------0---2-----|---------------------|
D|----2---------0---0------0---2-----|---------------------|
A|----0---------2----------0---0-----|---------------------|
E|----0---------3--------------0-----|---------------------|


INTERMEDIO:


Gtr1:
e|------------------------------------------------------------|
G|-------------------8----------------------------------------|
B|--0----7-----5-------------0---7----------------------------|
D|------------------------------------------------------------|
A|------------------------------------------------------------|
E|------------------------------------------------------------|
 |                                                            |
 |Gtr2:                                                       |
 | G/A Asus2  G/A   G6    Asus2  D   D   Asus2  Asus2  Asus2  |
e|-------------------0-----------2---2------------------------|
G|--0----0-----0-----3------0----3---3-----0------0------0----|
B|--0----2-----0-----4------0----2---2-----0------0------0----|
D|--0----2-----0-----5------0----0---0-----0------0------0----|
A|--0----0-----0-----5------0--------------0------0------0----|
E|-------------------0----------------------------------------|


Gtr1:
e|------------------------------------------------------------|
G|-------------------8----------------------------------------|
B|--0----7-----5-------------0---7----------------------------|
D|------------------------------------------------------------|
A|------------------------------------------------------------|
E|------------------------------------------------------------|
 |                                                            |
 |Gtr2:                                                       |
 | G/A Asus2  G/A   G6    Asus2  D   D   Asus2  Asus2  Asus2  |
e|-------------------0-----------2---2------------------------|
G|--0----0-----0-----3------0----3---3-----0------0------0----|
B|--0----2-----0-----4------0----2---2-----0------0------0----|
D|--0----2-----0-----5------0----0---0-----0------0------0----|
A|--0----0-----0-----5------0--------------0------0------0----|
E|-------------------0----------------------------------------|


Gtr1:
e|-------------------8----------------------------------------|
G|-------8------------------------8---------------------------| 
B|--7----------10------------7--------------------------------|
D|------------------------------------------------------------|
A|------------------------------------------------------------|
E|------------------------------------------------------------|
 |                                                            |
 |Gtr2:                                                       |
 | G/A Asus2  G/A   G(I)  Asus2  D   D   Asus2  Asus2  Asus2  |
e|-------------------3-----------2---2------------------------|
G|--0----0-----0-----0------0----3---3-----0------0------0----| 
B|--0----2-----0-----0------0----2---2-----0------0------0----|
D|--0----2-----0-----0------0----0---0-----0------0------0----|
A|--0----0-----0-----2------0--------------0------0------0----|
E|-------------------3----------------------------------------|


Gtr1:
e|-------------------8----------------------------------------|
G|-------8------------------------8---------------------------| 
B|--7----------10------------7--------------------------------|
D|------------------------------------------------------------|
A|------------------------------------------------------------|
E|------------------------------------------------------------|
 |                                                            |
 |Gtr2:                                                       |
 | G/A Asus2  G/A   G(I)  Asus2  D   D   Asus2  Asus2  Asus2  |
e|-------------------3-----------2---2------------------------|
G|--0----0-----0-----0------0----3---3-----0------0------0----| 
B|--0----2-----0-----0------0----2---2-----0------0------0----|
D|--0----2-----0-----0------0----0---0-----0------0------0----|
A|--0----0-----0-----2------0--------------0------0------0----|
E|-------------------3----------------------------------------|


    D5        C5     Asus2
e-------------------------------------------
G---------------------0---------------------
B---7----7----5-5-5---2---------------------
D---7----7----5-5-5---2---------------------
A---5----5----3-3-3---0--0--2---0---2---0---
E-------------------------------------------
                         Y  si  ma__ña__na

    D5        C5     Asus2
e-------------------------------------------
G---------------------0---------------------
B---7----7----5-5-5---2---------------------
D---7----7----5-5-5---2---------------------
A---5----5----3-3-3---0--0--2---0---2---0---
E-------------------------------------------
                         Y  si  ma__ña__na

    D5        C5     Asus2
e-------------------------------------------
G---------------------0---------------------
B---7----7----5-5-5---2---------------------
D---7----7----5-5-5---2---------------------
A---5----5----3-3-3---0--0--2---0---2---0---
E-------------------------------------------
                         Y  si  ma__ña__na

    D5        C5     Asus2
e-------------------------------------------
G---------------------0---------------------
B---7----7----5-5-5---2---------------------
D---7----7----5-5-5---2---------------------
A---5----5----3-3-3---0--0--2---0---2---0---
E-------------------------------------------
  aahhhhhh aahhhhhhh  ohhhhhhh........


A    G6         A 
Ya mañana se vera
     G6
ya mañana 
A      G6           A          G6    A
hoy prefiero disfrutar ahh ahh ahhh


A    G6         A 
Ya mañana se vera
     G6
ya mañana 
A      G6           A          G6   A
hoy prefiero disfrutar ahh ahh ahhh


A    G6         A 
Ya mañana se vera
     G6
ya mañana 
C      G           A
hoy prefiero disfrutar 


ESPERO QUE SEA DE TU AGRADO

CUALQUIR DUDA, CONCEJO O COMENTARIO 
POR FAVOR ESCRIBIR A: omarmc4@
Suggest correction
Give kudos to tab author, rate the tab!
1 2 3 4 5
comments
print report bad tab
guest
You may want to rate the tab now too:
select rating
Wanna post a correction for this tab? Suggest correction