Oops, an error
Loading. Please wait.

Si Mañana Tab

version 2
version 2

Whole song

by Octavia
23 views 1 this week
no commentswrite comment
1 2 3 4 5
3 more votes to show rating
add to favorites
launch autoscroll
font size
0
reset
how to read this tab
guitar tuner
×
Best way to learn
"Si Mañana"
Autoscroll
slow
fast
+/-
esc
set tempo
stop
Esta es un arreglo de la canción anterior hay un arreglo en los
acordes y en algunas partes de la cancion

     G    G(I)   Em   G/A    D   Asus2  D5   C5    C
e----0-----3-----3-----0-----------2---------------------0------
G----2-----3-----3-----0-----0-----3----0----------------1------
B----2-----4-----0-----0-----0-----2----2-----7-----5----0------
D----2-----5-----0-----2-----0-----0----2-----7-----5----2------
A----0-----5-----2-----2-----0----------0-----5-----3----3------
E----0-----3-----3-----0---------------------------------0------


INTRO:

 A G6 |> *2
      /

Intro de la quena:


      A         G6                       A           G6
e|-----------------------------------|---------------------|
G|----10--------13--12-----8---10----|---10----------------|
B|-----------------------------------|---------------------|
D|-----------------------------------|---------------------|
A|-----------------------------------|---------------------|
E|-----------------------------------|---------------------|

 |                                   |                     |
 |    A       G(I)  D     G/A  A     |   A           G6    |
e|----0---------3---3----------0-----|---------------------|
G|----2---------3---2------0---2-----|---------------------|
B|----2---------0---3------0---2-----|---------------------|
D|----2---------0---0------0---2-----|---------------------|
A|-----------------------------------|---------------------|
E|-----------------------------------|---------------------|


      A         G6                       A           G6
e|-----------------------------------|---------------------|
G|----10--------13--12-----8---10----|---10----------------|
B|-----------------------------------|---------------------|
D|-----------------------------------|---------------------|
A|-----------------------------------|---------------------|
E|-----------------------------------|---------------------|

 |                                   |                     |
 |    A       G(I)  D     G/A  A     |   A           G6    |
e|----0---------3---3----------0-----|---------------------|
G|----2---------3---2------0---2-----|---------------------|
B|----2---------0---3------0---2-----|---------------------|
D|----2---------0---0------0---2-----|---------------------|
A|-----------------------------------|---------------------|
E|-----------------------------------|---------------------|


A      G6
Y si mañana al
      A
despertar desnudas
   G6
tu alma
A          G6       A           G6        A
no olvides enseñármela no oh oh no   uhhh


A      G6
Y si decides
    A
enseñar también
   G6
tu cuerpo
A        G6          A             G6
no olvidare la invitación no oh oh oh no


G    D          A  G6
Ya mañana se vera
G      D
hoy prefiero disfrutar

      A         G6                       A           G6
e|-----------------------------------|---------------------|
G|----10--------13--12-----8---10----|---10----------------|
B|-----------------------------------|---------------------|
D|-----------------------------------|---------------------|
A|-----------------------------------|---------------------|
E|-----------------------------------|---------------------|

 |                                   |                     |
 |    A       G(I)  D     G/A  A     |   A           G6    |
e|----0---------3---3----------0-----|---------------------|
G|----2---------3---2------0---2-----|---------------------|
B|----2---------0---3------0---2-----|---------------------|
D|----2---------0---0------0---2-----|---------------------|
A|-----------------------------------|---------------------|
E|-----------------------------------|---------------------|

A      G6
Y si mañana
A          G6
no te encontrara
A     G6
dibujaría
        A        G6     A
mi ansiedad ohhh no


A        G6
Y si encontrara en ti el cristal
A         G6    A      G6
la transparencia olvidaría
A        G6
lo demás, lo demás,
G6
lo demás  ahh ohh

G    D          A  G6
Ya mañana se vera
G      D
hoy prefiero disfrutar

      A         G6                       A           G6
e|-----------------------------------|---------------------|
G|----10--------13--12-----8---10----|---10----------------|
B|-----------------------------------|---------------------|
D|-----------------------------------|---------------------|
A|-----------------------------------|---------------------|
E|-----------------------------------|---------------------|

 |                                   |                     |
 |    A       G(I)  D     G/A  A     |   A           G6    |
e|----0---------3---3----------0-----|---------------------|
G|----2---------3---2------0---2-----|---------------------|
B|----2---------0---3------0---2-----|---------------------|
D|----2---------0---0------0---2-----|---------------------|
A|-----------------------------------|---------------------|
E|-----------------------------------|---------------------|


INTERMEDIO:


e|------------------------------------------------------------|
G|-------------------8----------------------------------------|
B|--0----7-----5-------------0---7----------------------------|
D|------------------------------------------------------------|
A|------------------------------------------------------------|
E|------------------------------------------------------------|
 |                                                            |
 |                                                            |
 | G/A Asus2  G/A   G(I)  Asus2  D   D   Asus2  Asus2  Asus2  |
e|-------------------3-----------2---2------------------------|
G|--0----0-----0-----3------0----3---3-----0------0------0----|
B|--0----2-----0-----0------0----2---2-----0------0------0----|
D|--0----2-----0-----0------0----0---0-----0------0------0----|
A|--0----0-----0-----2------0--------------0------0------0----|
E|-------------------3----------------------------------------|

e|------------------------------------------------------------|
G|-------------------8----------------------------------------|
B|--0----7-----5-------------0---7----------------------------|
D|------------------------------------------------------------|
A|------------------------------------------------------------|
E|------------------------------------------------------------|
 |                                                            |
 |                                                            |
 | G/A Asus2  G/A   G(I)  Asus2  D   D   Asus2  Asus2  Asus2  |
e|-------------------3-----------2---2------------------------|
G|--0----0-----0-----3------0----3---3-----0------0------0----|
B|--0----2-----0-----0------0----2---2-----0------0------0----|
D|--0----2-----0-----0------0----0---0-----0------0------0----|
A|--0----0-----0-----2------0--------------0------0------0----|
E|-------------------3----------------------------------------|

e|------------------------------------------------------------|
G|-------------------8----------------------------------------|
B|--0----7-----5-------------0---7----------------------------|
D|------------------------------------------------------------|
A|------------------------------------------------------------|
E|------------------------------------------------------------|
 |                                                            |
 |                                                            |
 | G/A Asus2  G/A   G(I)  Asus2  D   D   Asus2  Asus2  Asus2  |
e|-------------------3-----------2---2------------------------|
G|--0----0-----0-----3------0----3---3-----0------0------0----|
B|--0----2-----0-----0------0----2---2-----0------0------0----|
D|--0----2-----0-----0------0----0---0-----0------0------0----|
A|--0----0-----0-----2------0--------------0------0------0----|
E|-------------------3----------------------------------------|

e|------------------------------------------------------------|
G|-------------------8----------------------------------------|
B|--0----7-----5-------------0---7----------------------------|
D|------------------------------------------------------------|
A|------------------------------------------------------------|
E|------------------------------------------------------------|
 |                                                            |
 |                                                            |
 | G/A Asus2  G/A   G(I)  Asus2  D   D   Asus2  Asus2  Asus2  |
e|-------------------3-----------2---2------------------------|
G|--0----0-----0-----3------0----3---3-----0------0------0----|
B|--0----2-----0-----0------0----2---2-----0------0------0----|
D|--0----2-----0-----0------0----0---0-----0------0------0----|
A|--0----0-----0-----2------0--------------0------0------0----|
E|-------------------3----------------------------------------|


    D5        C5     Asus2
e-------------------------------------------
G---------------------0---------------------
B---7----7----5-5-5---2-----5-------5-------
D---7----7----5-5-5---2--0--5---0---3---0---
A---5----5----3-3-3---0--0--3---0---3---0---
E-------------------------------------------
                         Y  si  ma__ña__na

D5        C5     Asus2
e-------------------------------------------
G---------------------0---------------------
B---7----7----5-5-5---2-----5-------5-------
D---7----7----5-5-5---2--0--5---0---3---0---
A---5----5----3-3-3---0--0--3---0---3---0---
E-------------------------------------------
                         Y  si  ma__ña__na

D5        C5     Asus2
e-------------------------------------------
G---------------------0---------------------
B---7----7----5-5-5---2-----5-------5-------
D---7----7----5-5-5---2--0--5---0---3---0---
A---5----5----3-3-3---0--0--3---0---3---0---
E-------------------------------------------
                         Y  si  ma__ña__na


D5        C5     Asus2
e-------------------------------------------
G---------------------0---------------------
B---7----7----5-5-5---2-----5-------5-------
D---7----7----5-5-5---2--0--5---0---3---0---
A---5----5----3-3-3---0--0--3---0---3---0---
E-------------------------------------------
    aahhhhhh aahhhhhhh  ohhhhhhh........


A    G6         A
Ya mañana se vera
     G6
ya mañana
A      G6           A          G6    A
Hoy prefiero disfrutar ahh ahh ahhh


A    G6         A
Ya mañana se vera
     G6
ya mañana
A      G6           A          G6   A
hoy prefiero disfrutar ahh ahh ahhh


A    G6         A
Ya mañana se vera
     G6
ya mañana
C      G           A
hoy prefiero disfrutar
 recomiendo escuchar la version en vivo
cualquier sugerencia escribid a mi corrreo:
alvaro_616_@
Suggest correction
Give kudos to tab author, rate the tab!
1 2 3 4 5
comments
print report bad tab
guest
You may want to rate the tab now too:
select rating
Wanna post a correction for this tab? Suggest correction