Oops, an error
Loading. Please wait.

Talismán Tab

by Octavia
44 views 3 this week
no commentswrite comment
1 2 3 4 5
3 more votes to show rating
add to favorites
×
Save as Personal and add changes to this tab that will be seen only by you. Learn more ›
×
You can save this tab as Personal to edit and correct it or add notes. All changes will be seen only by you. Learn more »
save as personal
new!
launch autoscroll
font size
0
reset
how to read this tab
guitar tuner
Autoscroll
slow
fast
+/-
esc
set tempo
stop
TRANSCRITO POR: Omar Miranda
22/12/2004

ACORDES:

   Asus4  G5  F  F7   Bb C#5  C5  G   Dm
e|------------1---0---1-----------3---1---|
B|---3----3---1---1---3-----------3---3---|
G|---2----0---2---2---3---6---5---0---2---|
D|---0----0---3---3---3---6---5---0---0---|
A|---0--------3---3---1---4---3---2-------|
E|--------3---1---0---------------3-------|

NOTACION:

Harmónico: 


INTRO:

   Asus4        G5             Asus4        G5          \
e|-----------|---------------|-----------|-----------|   |
B|-----------|---------------|-----------|-----------|   |
G|-----------|---------------|-----------|------5-4--|   |> *2
D|------3-5--|--5---7-5-3----|------3-5--|--5---5-5--|   |
A|--3-5------|------------5--|--3-5------|-----------|   |
E|-----------|---------------|-----------|-----------|   |
                                                         /

VERSO:

   Asus4                   G5             Asus4                      G5
e|----------------------|---------------|-------------------------|-----------|
B|----------------------|---------------|-------------------------|-----------|
G|----------------------|---------------|-------------------------|------5-4--|
D|------3-5-------------|--5---7-5-3----|------3-5----------------|--5---5-5--|
A|--3-5-----------------|------------5--|--3-5--------------------|-----------|
E|----------------------|---------------|-------------------------|-----------|
          Descubrí la libertad                   Al besarte en plena oscuridad

   Asus4                       G5             Asus4                      G5
e|--------------------------|---------------|-------------------------|-----------|
B|--------------------------|---------------|-------------------------|-------|
G|--------------------------|---------------|-------------------------|-------|
D|------3-5-----------------|--5---7-5-3----|------3-5----------------|-------|
A|--3-5---------------------|------------5--|--3-5--------------------|-----------|
E|--------------------------|---------------|-------------------------|-----------|
          Reencontré la intensidad                   De entregarme a la sed de amar


F           F7             Bb
Tu vienes a mi me irradias paz
         C#5 C5        F
Quitas de mi toda ansiedad
F           F7               Bb
Me das plenitud me llenas de luz
       C#5 C5
Tú eres mi talismán


   Asus4        G5             Asus4        G5
e|-----------|---------------|-----------|-----------|
B|-----------|---------------|-----------|-----------|
G|-----------|---------------|-----------|------5-4--|
D|------3-5--|--5---7-5-3----|------3-5--|--5---5-5--|
A|--3-5------|------------5--|--3-5------|-----------|
E|-----------|---------------|-----------|-----------|


VERSO:

   Asus4                    G5             Asus4                      G5
e|----------------------|----------------|-------------------------|-----------|
B|----------------------|----------------|-------------------------|-----------|
G|----------------------|----------------|-------------------------|------5-4--|
D|------3-5-------------|---5---7-5-3----|------3-5----------------|--5---5-5--|
A|--3-5-----------------|-------------5--|--3-5--------------------|-----------|
E|----------------------|----------------|-------------------------|-----------|
          Ya no creo en el azar                   Ya no busco la    casualidad

   Asus4                        G5             Asus4                      G5
e|---------------------------|---------------|-------------------------|-----------|
B|---------------------------|---------------|-------------------------|-------|
G|---------------------------|---------------|-------------------------|-------|
D|------3-5------------------|--5---7-5-3----|------3-5----------------|-------|
A|--3-5----------------------|------------5--|--3-5--------------------|-----------|
E|---------------------------|---------------|-------------------------|-----------|
          Comprendí que en realidad                  Llevo tiempo     esperándote


F           F7             Bb
Tu vienes a mi me irradias paz
        C#5 C5   F
Curas en mi todo mal
F           F7               Bb
Me das plenitud me llenas de luz
       C#5 C5
Tú eres mi talismán


INTERMEDIO:
ESTA ES LA PARTE DE LA QUENA HECHA PARA LA GUITARRA

    G   Dm     G               Dm         G                Dm                     G                  Dm
e|----|-----|--7---------7--|--8-7-----|--7-------10-7--|--8-7-----------15--|--------------15----|---------|
B|----|-----|----10-8-------|------10--|----10-8--------|------10-----15-----|--15-12----15----15-|--13-15--|
G|----|-----|---------------|----------|----------------|--------------------|--------------------|---------|
D|----|-----|---------------|----------|----------------|--------------------|--------------------|---------|
A|----|-----|---------------|----------|----------------|--------------------|--------------------|---------|
E|----|-----|---------------|----------|----------------|--------------------|--------------------|---------|

F           F7             Bb
Tu vienes a mi me irradias paz
         C#5 C5    F
Completas mi felicidad
F           F7               Bb
Me das plenitud me llenas de luz
C#5     C5      F
Tú eres mi talismán


F  F7      Bb  C#5 C5
......Talismán
F  F7      Bb  C#5 C5   F
...................Talismán
F7      Bb  C#5 C5   F
................Talismán iahh


ESPERO QUE SEA DE TU AGRADO

CUALQUIER DUDA, CONCEJO O COMENTARIO
POR FAVOR ESCRIBIR
A MI NUEVO CORREO: omctabs@
Suggest correction
Give kudos to tab author, rate the tab!
1 2 3 4 5
comments
print report bad tab
guest
Wanna post a correction for this tab? Suggest correction