Oops, an error
Loading. Please wait.

Vértigo Tab

5 views 1 this week
no commentswrite comment
1 2 3 4 5
3 more votes to show rating
add to favorites
launch autoscroll
font size
0
reset
how to read this tab
guitar tuner
Autoscroll
slow
fast
+/-
esc
set tempo
stop
Help us to improve Ultimate-Guitar.com Take our survey!
×
TRANSCRITO POR: Omar Miranda
14/10/2004

ACORDES:

    Em Dsus2  G5 Asus2 D   G   A Asus4 C  F7   A5  B5  C5  D5  F7Madd11 
e|--0----0---------0---2---3---0---0---0---0----------------------0-------|
B|--0----3----3----0---3---3---2---3---1---1----------------------0-------|
G|--0----2----0----2---2---0---2---2---0---2---2---4---5---7------2-------|
D|--2----0----0----2---0---0---2---2---2---3---2---4---5---7------3-------|
A|--2--------------0-------2---0---0---3---3---0---2---3---5------3-------|
E|--0---------3------------3--------------------------------------0-------|


NOTACION:

S.A. : SIN ACORDE

NOTA: ESCUCHA LA CANCION PARA QUE TE UBIQUES EN EL RASGUEO
      EN LAS PARTES DE LOS VERSOS YA QUE SOLAMENTE ESTOY
      ESPECIFICANDO EN QUE PARTES SE TIENE QUE CAMBIAR LAS NOTAS

INTRO:

    Em  Dsus2   G5   Asus2
e|--0--|--0--|-----|----------------|
B|--0--|--3--|--3--|-------0--------|
G|--0--|--2--|--0--|-----2---2------|
D|--2--|--0--|--0--|-0-2-------0-2--|
A|--2--|-----|-----|----------------|
E|--0--|-----|--3--|----------------|


    Em    D     G    A Asus4 A
e|--0--|--2--|--3--|-0---0---0--|
B|--0--|--3--|--3--|-2---3---2--|
G|--0--|--2--|--0--|-2---2---2--|
D|--2--|--0--|--0--|-2---2---2--|
A|--2--|-----|--2--|-0---0---0--|
E|--0--|-----|--3--|------------|


    Em  Dsus2   G5   Asus2
e|--0--|--0--|-----|----------------|
B|--0--|--3--|--3--|----------------|
G|--0--|--2--|--0--|-----0-2-0---0--|
D|--2--|--0--|--0--|-0-2-------0----|
A|--2--|-----|-----|----------------|
E|--0--|-----|--3--|----------------|


    Em    D     G    S.A.
e|--0--|--2--|--3--|----------------|
B|--0--|--3--|--3--|-1-0------------|
G|--0--|--2--|--0--|-0-0--2-0--0-0--|
D|--2--|--0--|--0--|------0-0--2-0--|
A|--2--|-----|--2--|----------------|
E|--0--|-----|--3--|----------------|


VERSO:


    Em     Dsus2   G5              Asus2
e|---0---|---0---|---------------|-----------------|
B|---0---|---3---|--3------------|--------0--------|
G|---0---|---2---|--0------------|------2---2------|
D|---2---|---0---|--0------------|--0-2-------0-2--|
A|---2---|-------|---------------|-----------------|
E|---0---|-------|--3------------|-----------------|
     Cada pregunta  sin respuesta

    Em       D         G    A Asus4 A
e|---0---|---2---|-----3--|-0---0---0--|
B|---0---|---3---|-----3--|-2---3---2--|
G|---0---|---2---|-----0--|-2---2---2--|
D|---2---|---0---|-----0--|-2---2---2--|
A|---2---|-------|-----2--|-0---0---0--|
E|---0---|-------|-----3--|------------|
    Cada oración sin final

    Em          Dsus2   G5              Asus2
e|---0--------|---0---|---------------|-----------------|
B|---0--------|---3---|--3------------|--------0--------|
G|---0--------|---2---|--0------------|------2---2------|
D|---2--------|---0---|--0------------|--0-2-------0-2--|
A|---2--------|-------|---------------|-----------------|
E|---0--------|-------|--3------------|-----------------|
    Siento que el tiempo no avanza

    Em        D          G    A Asus4 A
e|---0----|---2---|------3--|-0---0---0--|
B|---0----|---3---|------3--|-2---3---2--|
G|---0----|---2---|------0--|-2---2---2--|
D|---2----|---0---|------0--|-2---2---2--|
A|---2----|-------|------2--|-0---0---0--|
E|---0----|-------|------3--|------------|
    Desde que tu ya no estas


CORO:


    C                    F7 
e|--0--0--0--0--0---0--|--0--0--0----0---0--0---|
B|--1--1--3--1--0---1--|--1--1--3----1---0--1---|
G|--0--0--0--0--0---0--|--2--2--2----2---2--2---|
D|--2--2--2--2--2---2--|--3--3--0----0---0--0---|
A|--3--3--3--3--3---3--|--3--3--3----3---3--3---|
E|---------------------|------------------------|
          Es_te cuento          de estar so_lo

    C                    F7 
e|--0--0--0--0--0---0--|--0--0--0----0---0--0---|
B|--1--1--3--1--0---1--|--1--1--3----1---0--1---|
G|--0--0--0--0--0---0--|--2--2--2----2---2--2---|
D|--2--2--2--2--2---2--|--3--3--0----0---0--0---|
A|--3--3--3--3--3---3--|--3--3--3----3---3--3---|
E|---------------------|------------------------|
          Ca_da vez me    hunde más

    C                      F7 
e|--0--0--0-----0--0--0--|--0--0--0--0----0---0---|
B|--1--1--3-----1--0--1--|--1--1--3--1----0---1---|
G|--0--0--0-----0--0--0--|--2--2--2--2----2---2---|
D|--2--2--2-----2--2--2--|--3--3--0--0----0---0---|
A|--3--3--3-----3--3--3--|--3--3--3--3----3---3---|
E|-----------------------|------------------------|
          Si es un juego          es_te infierno

    C                    F7Madd11 
e|--0--0--0--0--0--0--|--0-----------------0-------|
B|--1--1--3--1--0--1--|--0------------------0------|
G|--0--0--0--0--0--0--|--2-------------------2-----|
D|--2--2--2--2--2--2--|--3--------------------3----|
A|--3--3--3--3--3--3--|--3---------------------3---|
E|--------------------|--0----------------------0--|
                   No    quiero jugar más


INTERMEDIO:


    Em  Dsus2   G5   Asus2
e|--0--|--0--|-----|----------------|
B|--0--|--3--|--3--|-------0--------|
G|--0--|--2--|--0--|-----2---2------|
D|--2--|--0--|--0--|-0-2-------0-2--|
A|--2--|-----|-----|----------------|
E|--0--|-----|--3--|----------------|


    Em    D     G    A Asus4 A
e|--0--|--2--|--3--|-0---0---0--|
B|--0--|--3--|--3--|-2---3---2--|
G|--0--|--2--|--0--|-2---2---2--|
D|--2--|--0--|--0--|-2---2---2--|
A|--2--|-----|--2--|-0---0---0--|
E|--0--|-----|--3--|------------|


VERSO:

    Em     Dsus2    G5             Asus2
e|---0---|---0---|---------------|-----------------|
B|---0---|---3---|--3------------|-----------------|
G|---0---|---2---|--0------------|------0-2-0---0--|
D|---2---|---0---|--0------------|--0-2-------0----|
A|---2---|-------|---------------|-----------------|
E|---0---|-------|--3------------|-----------------|
     Cada  saludo  con mi espejo

    Em       D         G    A Asus4 A
e|---0---|---2---|-----3--|-0---0---0--|
B|---0---|---3---|-----3--|-2---3---2--|
G|---0---|---2---|-----0--|-2---2---2--|
D|---2---|---0---|-----0--|-2---2---2--|
A|---2---|-------|-----2--|-0---0---0--|
E|---0---|-------|-----3--|------------|
     Cada reflejo   se va

    Em           Dsus2    G5             Asus2
e|---0--------|----0---|---------------|-----------------|
B|---0--------|----3---|--3------------|-----------------|
G|---0--------|----2---|--0------------|------0-2-0---0--|
D|---2--------|----0---|--0------------|--0-2-------0----|
A|---2--------|--------|---------------|-----------------|
E|---0--------|--------|--3------------|-----------------|
     Siento que el eco me acaricia

    Em        D               G    A Asus4 A
e|---0----|---2---|-----------3--|-0---0---0--|
B|---0----|---3---|-----------3--|-2---3---2--|
G|---0----|---2---|-----------0--|-2---2---2--|
D|---2----|---0---|-----------0--|-2---2---2--|
A|---2----|-------|-----------2--|-0---0---0--|
E|---0----|-------|-----------3--|------------|
     Tanta  pared me ha hecho mal


CORO:


    C                    F7 
e|--0--0--0--0--0---0--|--0--0--0----0---0--0---|
B|--1--1--3--1--0---1--|--1--1--3----1---0--1---|
G|--0--0--0--0--0---0--|--2--2--2----2---2--2---|
D|--2--2--2--2--2---2--|--3--3--0----0---0--0---|
A|--3--3--3--3--3---3--|--3--3--3----3---3--3---|
E|---------------------|------------------------|
          Es_te cuento          de estar so_lo

    C                    F7 
e|--0--0--0--0--0---0--|--0--0--0----0---0--0---|
B|--1--1--3--1--0---1--|--1--1--3----1---0--1---|
G|--0--0--0--0--0---0--|--2--2--2----2---2--2---|
D|--2--2--2--2--2---2--|--3--3--0----0---0--0---|
A|--3--3--3--3--3---3--|--3--3--3----3---3--3---|
E|---------------------|------------------------|
          Ca_da vez me    hunde más

    C                    F7 
e|--0--0--0-----0--0--0--|--0--0--0--0----0---0---|
B|--1--1--3-----1--0--1--|--1--1--3--1----0---1---|
G|--0--0--0-----0--0--0--|--2--2--2--2----2---2---|
D|--2--2--2-----2--2--2--|--3--3--0--0----0---0---|
A|--3--3--3-----3--3--3--|--3--3--3--3----3---3---|
E|-----------------------|------------------------|
          Si es un juego          es_te infierno

    C                    F7Madd11 
e|--0--0--0--0--0--0--|--0-----------------0-------|
B|--1--1--3--1--0--1--|--0------------------0------|
G|--0--0--0--0--0--0--|--2-------------------2-----|
D|--2--2--2--2--2--2--|--3--------------------3----|
A|--3--3--3--3--3--3--|--3---------------------3---|
E|--------------------|--0----------------------0--|
                   No    quiero jugar más


INTERMEDIO:

e|--0--0-0--0-0-0--0-0-0-0-0-0-0--|--0--0-0--0-0-0--0-0-0-0--0--|
B|--0--0-0--0-0-0--0-0-0-0-0-0-0--|--0--0-0--0-0-0--0-0-0-0--0--|
G|--5--5-5--7-5-4--4-4-4-4-4-4-4--|--5--5-5--7-5-4--5-4-5-4--5--|
D|--7--7-7--7-5-5--5-5-5-5-5-5-5--|--7--7-7--7-5-5--5-5-5-5--5--|
A|--------------------------------|-----------------------------|
E|--------------------------------|-----------------------------|

e|--0---0--0----0--0-0--0-0--0-0-0--0-0--|--0-0-0--0-0-0-0--0--|
B|--0---0--0----0--0-0--0-0--0-0-0--0-0--|--0-0-0--0-0-0-0--0--|
G|--9---9--9----10-9-7--9-7--9-7-5--7-5--|--7-5-4--5-4-5-4--5--|
D|--10--10-10---10-9-9--9-9--9-7-7--7-7--|--7-5-5--5-5-5-5--5--|
A|---------------------------------------|---------------------|
E|---------------------------------------|---------------------|

e|--0---0--0-----0---0--0--0--0---0--0-0--0-0--0-0--0-0-0-0-0---|
B|--0---0--0-----8---0--0--0--0---0--0-0--0-0--0-0--0-0-0-0-0---|
G|--9---9--9-----9---10-9--10-9---10-9-7--9-7--9-7--5-5-7-9-10--|
D|--10--10-10----10--10-9--10-9---10-9-9--9-9--9-7--7-7-7-9-10--|
A|--------------------------------------------------------------|
E|--------------------------------------------------------------|


C          F7 
 Este juego de estar solo
C            F7 
 Cada vez me hunde más
C               F7          C
 Si es un juego este infierno
A5                   A5  B5  C5  D5    C
 No quiero jugar más no, no, no, no, ehhh


C          F7 
 Este juego de estar solo
C            F7 
 Cada vez me hunde más
C               F7           C
 Si es un juego este infierno
    F7Madd11+
 No quiero jugar más


ESPERO QUE SEA DE TU AGRADO

CUALQUIER DUDA, CONCEJO O COMENTARIO
POR FAVOR ESCRIBIR
A MI NUEVO CORREO: omctabs@
Suggest correction
Give kudos to tab author, rate the tab!
1 2 3 4 5
comments
print report bad tab
guest
You may want to rate the tab now too:
select rating
Wanna post a correction for this tab? Suggest correction