Oops, an error
Loading. Please wait.

Volcán Tab

by Octavia
4 views 1 this week
no commentswrite comment
1 2 3 4 5
3 more votes to show rating
add to favorites
×
Save as Personal and add changes to this tab that will be seen only by you. Learn more ›
×
You can save this tab as Personal to edit and correct it or add notes. All changes will be seen only by you. Learn more »
save as personal
new!
launch autoscroll
font size
0
reset
how to read this tab
guitar tuner
Autoscroll
slow
fast
+/-
esc
set tempo
stop
TRANSCRITO POR: Omar Miranda
08/11/2004

ACORDES:


    E  Dsus2  A   A/C#
e|--0----0----0----0---|
B|--0----3----2----2---|
G|--1----2----2----2---|
D|--2----0----2----2---|
A|--2---------0----4---|
E|--0------------------|

NOTACION:

(N) :NOTA FANTASMA


INTRO:

   E                    Dsus2         A             \
e|-------------------|-------------|-------------|   |
B|-------------------|-------------|-------------|   |
G|-------------------|-------------|-------------|   |
D|--7-7-6------------|-------------|-------------|   |> *2
A|--------7-(7)-(7)--|--5-(5)-(5)--|--4-(4)------|   |
E|-------------------|-------------|--------7-5--|   |
                                                    /

VERSO:

E                       Dsus2 A
En el umbral del trueno
           E         Dsus2 A
cerca a la tempestad
        E           Dsus2
Con uno solo de tus besos
A       E           Dsus2 A
Tú me haces temblar

        E              Dsus2 A
En el umbral del fuego
          E          Dsus2 A
Y a punto de estallar
         E
Con tu mirada ardiente
Dsus2 A
Me   fundirás

CORO:

    E            Dsus2          E        A
e|-------------|----7----7----|-9-7----|--------------|
B|-----9---9---|-10---10---10-|-----9--|-10--10-9-7-9-|
G|--9----9---9-|--------------|--------|--------------|
D|-------------|--------------|--------|--------------|
A|-------------|--------------|--------|--------------|
E|-------------|--------------|--------|--------------|
    Volcán       mi energía     Volcán   mi desenfreno

    E            Dsus2          A             E
e|-------------|----7----7----|-9-7----|-7-9-10-10-10-10-10-10-10-10--|
B|-----9---9---|-10---10---10-|-----10-|-----10-10-10-10-10-10-10-10--|
G|--9----9---9-|--------------|--------|------------------------------|
D|-------------|--------------|--------|------------------------------|
A|-------------|--------------|--------|------------------------------|
E|-------------|--------------|--------|------------------------------|
    Volcán       mi delirio  En ti quiero estallar


    E            Dsus2          E        A
e|-------------|----7----7----|-9-7----|--------------|
B|-----9---9---|-10---10---10-|-----9--|-10--10-9-7-9-|
G|--9----9---9-|--------------|--------|--------------|
D|-------------|--------------|--------|--------------|
A|-------------|--------------|--------|--------------|
E|-------------|--------------|--------|--------------|
    Volcán       mi energía     Volcán   mi desenfreno

    E            Dsus2          A             E
e|-------------|----7----7----|-9-7----|-7-9-10-10-10-10-10-10-10-12--|
B|-----9---9---|-10---10---10-|-----10-|-----10-10-10-10-10-10-10-10--|
G|--9----9---9-|--------------|--------|------------------------------|
D|-------------|--------------|--------|------------------------------|
A|-------------|--------------|--------|------------------------------|
E|-------------|--------------|--------|------------------------------|
    Volcán       mi delirio  En ti quiero estallar


   E                    Dsus2         A             \
e|-------------------|-------------|-------------|   |
B|-------------------|-------------|-------------|   |
G|-------------------|-------------|-------------|   |
D|--7-7-6------------|-------------|-------------|   |> *2
A|--------7-(7)-(7)--|--5-(5)-(5)--|--4-(4)------|   |
E|-------------------|-------------|--------7-5--|   |
                                                    /

VERSO:

         E                Dsus2   A              E             Dsus2   A
e|----------------------|-------|-----|----------------------|-------|-----|
B|----------------------|-------|-----|----------------------|-------|-----|
G|----------------------|-------|-----|----------------------|-------|-----|
D|----------------------|-0-----|-----|----------------------|-0-----|-----|
A|----------------------|-------|-0---|----------------------|-------|-0---|
E|------0---------------|-------|-----|----------0-----------|-------|-----|
    En umbral del cielo                  Tú me sueles dejar


        E                 Dsus2   A        E                   Dsus2   A
e|----------------------|-------|-----|----------------------|-------|-----|
B|----------------------|-------|-----|----------------------|-------|-----|
G|----------------------|-------|-----|----------------------|-------|-----|
D|----------------------|-0-----|-----|----------------------|-0-----|-----|
A|----------------------|-------|-0---|----------------------|-------|-0---|
E|------0---------------|-------|-----|----0-----------------|-------|-----|
  Una palabra tuya             Bastara para elevarme


             E                 Dsus2   A/C#           E             Dsus2   A/C#
e|---------------------------|-------|-----|----------------------|-------|-----|
B|---------------------------|-------|-----|----------------------|-------|-----|
G|---------------------------|-------|-----|----------------------|-------|-----|
D|---------------------------|-0-----|-----|----------------------|-0-----|-----|
A|---------------------------|-------|-4---|----------------------|-------|-4---|
E|-----------0---------------|-------|-----|----------0-----------|-------|-----|
  Hacia el umbral en brasas                 Yo me encaminare

         E                Dsus2   A/C#
e|----------------------|-------|-----|
B|----------------------|-------|-----|
G|----------------------|-------|-----|
D|----------------------|-0-----|-----|
A|----------------------|-------|-4---|
E|------0---------------|-------|-----|
   Una caricia tuya          Me guiara


CORO:


    E            Dsus2          E        A
e|-------------|----7----7----|-9-7----|--------------|
B|-----9---9---|-10---10---10-|-----9--|-10--10-9-7-9-|
G|--9----9---9-|--------------|--------|--------------|
D|-------------|--------------|--------|--------------|
A|-------------|--------------|--------|--------------|
E|-------------|--------------|--------|--------------|
    Volcán       mi energía     Volcán   mi desenfreno

    E            Dsus2          A             E
e|-------------|----7----7----|-9-7----|-7-9-10-10-10-10-10-10-10-10--|
B|-----9---9---|-10---10---10-|-----10-|-----10-10-10-10-10-10-10-10--|
G|--9----9---9-|--------------|--------|------------------------------|
D|-------------|--------------|--------|------------------------------|
A|-------------|--------------|--------|------------------------------|
E|-------------|--------------|--------|------------------------------|
    Volcán       mi delirio  En ti quiero estallar


    E            Dsus2          E        A
e|-------------|----7----7----|-9-7----|--------------|
B|-----9---9---|-10---10---10-|-----9--|-10--10-9-7-9-|
G|--9----9---9-|--------------|--------|--------------|
D|-------------|--------------|--------|--------------|
A|-------------|--------------|--------|--------------|
E|-------------|--------------|--------|--------------|
    Volcán       mi energía     Volcán   mi desenfreno

    E            Dsus2          A             E
e|-------------|----7----7----|-9-7----|-7-9-10-10-10-10-10-10-10-12--|
B|-----9---9---|-10---10---10-|-----10-|-----10-10-10-10-10-10-10-10--|
G|--9----9---9-|--------------|--------|------------------------------|
D|-------------|--------------|--------|------------------------------|
A|-------------|--------------|--------|------------------------------|
E|-------------|--------------|--------|------------------------------|
    Volcán       mi delirio  En ti quiero estallar


   E                    Dsus2         A             \
e|-------------------|-------------|-------------|   |
B|-------------------|-------------|-------------|   |
G|-------------------|-------------|-------------|   |
D|--7-7-6------------|-------------|-------------|   |> *4
A|--------7-(7)-(7)--|--5-(5)-(5)--|--4-(4)------|   |
E|-------------------|-------------|--------7-5--|   |
                                                    /

SALIDA:

           E            Dsus2  A          E        Dsus2  A
e|-------------|----------------|---7---7----9-----9---9--|
B|-----9---9---|-10-----10---10-|-------------------------|
G|--9----9---9-|----9-9----9----|-9---9----9---9-9---9----|
D|-------------|----------------|-------------------------|
A|-------------|----------------|-------------------------|
E|-------------|----------------|-------------------------|
   En el umbral del trueno         En el umbral del cielo


           E            Dsus2  A          E        Dsus2  A
e|-------------|----------------|---7---7----9-----9---9--|
B|-----9---9---|-10-----10---10-|-------------------------|
G|--9----9---9-|----9-9----9----|-9---9----9---9-9---9----|
D|-------------|----------------|-------------------------|
A|-------------|----------------|-------------------------|
E|-------------|----------------|-------------------------|
   Quiero despertar              Quiero despertar


        E       Dsus2  A  E  Dsus2  A     E Dsus2  A      E
e|---10---10-12-12-12-12-12-12-12-12-12-12-12-12-12-12-12-12-------|
B|---10---10-10-10-10-10-10-10-10-10-10-10-10-10-10-10-10-10-------|
G|-9----9----9--9--9--9--9--9--9--9--9--9--9--9--9--9--9--9--------|
D|-----------------------------------------------------------------|
A|-----------------------------------------------------------------|
E|-----------------------------------------------------------------|
  Quiero despertar, Uoh uohh,    Quiero despertar, Quiero despertar


ESPERO QUE SEA DE TU AGRADO

CUALQUIER DUDA, CONCEJO O COMENTARIO
POR FAVOR ESCRIBIR
A MI NUEVO CORREO: omctabs@
Suggest correction
Give kudos to tab author, rate the tab!
1 2 3 4 5
comments
print report bad tab
guest
Wanna post a correction for this tab? Suggest correction