Oops, an error
Loading. Please wait.

Ya Que No Estás Tab

version 1
version 1

Whole song

4 views 1 this week
no commentswrite comment
1 2 3 4 5
3 more votes to show rating
add to favorites
launch autoscroll
font size
0
reset
how to read this tab
guitar tuner
Autoscroll
slow
fast
+/-
esc
set tempo
stop
Help us to improve Ultimate-Guitar.com Take our survey!
×
TRANSCRITO POR: Omar Miranda
1/05/2002


ESTA VERSION ESTA HECHA PARA UNA GUITARRA TRATANDO DE DE NO OMITIR LAS 
PARTES MAS SOBRESALIENTAS DE LA CANCION 

LA VERSION ORIGINAL ES INTERPRETADA A DOS GUITARRAS, 
LAS CUALES TIENE UN NIVEL DE TECNICA BASTANTE ALTO

SI SABES OTRA FORMA DE INTERPRETARLO POR FAVOR EMBIAMELO A MI CORREO 
TE AGRADECERE MUCHO


NOTACION:
/ DESLIZAR HACIA ABAJO

ACORDES:

   Am   G    Dsus2   Dsus2/G  Dsus2/F#   F7M(I)   A#7    D7     F7M(II)
e--0----------0---------0---------0-------0--------1------5-------8 ----
G--1----0-----3---------3---------3-------1--------3------7-------10----
B--2----0-----2---------2---------2-------2--------2------6-------9 ----
D--2----0-----0---------0---------0-------3--------3------7-------10----
A--0----2---------------0---------0-------0--------1------5-------8 ----
E--0----3---------------3---------2----------------1------5-------8 ----


   Am                                     G    
e---------0-0----------------0-0--------|----------0-0-1-0-----------0-0-1-0-
G--------1----0-1-----------1----0-1----|---------0-----------------0--------
B-------2------------------2------------|--------0-----------------0---------
D------2------------------2-------------|-------0-----------------0----------
A--0------------------0-----------------|------2-----------------2-----------
E---------------------------------------|--3-----------------3---------------

   Dsus2      Dsus2/G  Dsus2/F#   Am
e--------0-0------------------|--------------------------
G-------3---------3-----3-----|-------------------------- 
B------2--------------------0-|--------------------------
D--0--------------------------|-----2--------------------
A-----------------------------|--0-----0----2------------
E---------------3---2---------|-------------3------------


Am             G    
Camino en mi soñar
               Dsus2   Dsus2/G    Dsus2/F#
y sueño al caminar............que 
Dsus2/F#   Am           G 
esos pasos me conduzcan hacia ti
Am            G    
alcanzo a vacilar
               Dsus2   Dsus2/G  Dsus2/F#
vacilo al alcanzar............aquel
       Am         G 
camino que te separó de mí


F7M(I)        A#7    
Mas cuando yo bailo
              F7M(I)        
vuelvo a respirar
           A#7 
dejo mi letargo
               D7     
brillo un poco más
          F7M(II)             D7  
por un instante puedo olvidar
           F7M(II)
todo mi quebranto

   Am                                     G     
e---------0-0----------------0-0--------|----------0-0-1-0-----------0-0-1-0-
G--------1----0-1-----------1----0-1----|---------0-----------------0--------
B-------2------------------2------------|--------0-----------------0---------
D------2------------------2-------------|-------0-----------------0----------
A--0------------------0-----------------|------2-----------------2-----------
E---------------------------------------|--3-----------------3---------------
                                           mi eterna soledad
   Dsus2      Dsus2/G  Dsus2/F#  Am
e--------0-0------------------|--------------------------
G-------3---------3-----3-----|-------------------------- 
B------2--------------------0-|--------------------------
D--0--------------------------|-----2--------------------
A-----------------------------|--0-----0----2------------
E---------------3---2---------|-------------3------------

Am              G 
Hoy grito por salir
             Dsus2   Dsus2/G  Dsus2/F#
y salgo a gritar............tu nombre
         Am                 G 
a cada esquina que te vio pasar
Am            G    
cansado ya de andar
             Dsus2      Dsus2/G  Dsus2/F#
andado en el cansancio........le ordené
      Am                  G 
a mis pies no dar un paso más. 


F7M(I)        A#7    
Mas cuando yo bailo
              F7M(I)        
vuelvo a respirar
           A#7 
dejo mi letargo
               D7     
brillo un poco más
          F7M(II)             D7  
por un instante puedo olvidar
           F7M(II)
todo mi quebranto

   Am                                     G    
e---------0-0----------------0-0--------|----------0-0-1-0-----------0-0-1-0-
G--------1----0-1-----------1----0-1----|---------0-----------------0--------
B-------2------------------2------------|--------0-----------------0---------
D------2------------------2-------------|-------0-----------------0----------
A--0------------------0-----------------|------2-----------------2-----------
E---------------------------------------|--3-----------------3---------------
                                           mi eterna soledad
   Dsus2      Dsus2/G  Dsus2/F#   Am
e--------0-0------------------|--------------------------
G-------3---------3-----3-----|-------------------------- 
B------2--------------------0-|--------------------------
D--0--------------------------|-----2--------------------
A-----------------------------|--0-----0----2------------
E---------------3---2---------|-------------3------------


PUNTEO:

  Am                         G                Dsus2
e--9/11-----9-------------|--------------------------------------
G-------------12-11-7-7/9-|-(9)----5-7/9----5-2------------------ 
B-------------------------|--------------------------------------
D-------------------------|--------------------------------------
A-------------------------|--------------------------------------
E-------------------------|--------------------------------------
         Am                      G
e--------------------------------9/11------------------------
G-4-5/7--4-2---5-4---7-5---9-7-9----------------------------- 
B------------------------------------------------------------
D------------------------------------------------------------
A------------------------------------------------------------
E------------------------------------------------------------


F7M(I)        A#7    
Mas cuando yo bailo
              F7M(I)        
vuelvo a respirar
           A#7 
dejo mi letargo
               D7     
brillo un poco más
          F7M(II)             D7  
por un instante puedo olvidar
           F7M(II)
todo mi quebranto

   Am                                     G    
e---------0-0----------------0-0--------|----------0-0-1-0-----------0-0-1-0-
G--------1----0-1-----------1----0-1----|---------0-----------------0--------
B-------2------------------2------------|--------0-----------------0---------
D------2------------------2-------------|-------0-----------------0----------
A--0------------------0-----------------|------2-----------------2-----------
E---------------------------------------|--3-----------------3---------------
                                           mi eterna soledad
   Dsus2      Dsus2/G  Dsus2/F#   Am
e--------0-0------------------|--------------------------
G-------3---------3-----3-----|-------------------------- 
B------2--------------------0-|--------------------------
D--0--------------------------|-----2--------------------
A-----------------------------|--0-----0----2------------
E---------------3---2---------|-------------3------------


   Am                                     G    
e---------0-0----------------0-0--------|----------0-0-1-0-----------0-0-1-0-
G--------1----0-1-----------1----0-1----|---------0-----------------0--------
B-------2------------------2------------|--------0-----------------0---------
D------2------------------2-------------|-------0-----------------0----------
A--0------------------0-----------------|------2-----------------2-----------
E---------------------------------------|--3-----------------3---------------
                                           mi eterna soledad

   Dsus2      Dsus2/G  Dsus2/F#   Am
e--------0-0------------------|--------------------------
G-------3---------3-----3-----|-------------------------- 
B------2--------------------0-|--------------------------
D--0--------------------------|-----2--------------------
A-----------------------------|--0-----0----2------------
E---------------3---2---------|-------------3------------


   Am                                     G    
e---------0-0----------------0-0--------|----------0-0-1-0-----------0-0-1-0-
G--------1----0-1-----------1----0-1----|---------0-----------------0--------
B-------2------------------2------------|--------0-----------------0---------
D------2------------------2-------------|-------0-----------------0----------
A--0------------------0-----------------|------2-----------------2-----------
E---------------------------------------|--3-----------------3---------------
                                           mi eterna soledad

   Dsus2      Dsus2/G  Dsus2/F#   Am
e--------0-0------------------|---------0-0----------------0-0------------0-
G-------3---------3-----3-----|--------1----0-1-----------1----0-1-------1--
B------2--------------------0-|-------2------------------2--------------2---
D--0--------------------------|------2------------------2--------------2----
A-----------------------------|--0------------------0-----------------0-----
E---------------3---2---------|---------------------------------------------
  (MI eterna soledad)            MI eterna soledad


ESPERO QUE SEA DE SU AGRADO

CUALQUIR DUDA, CONCEJO O COMENTARIO 
POR FAVOR ESCRIBIR A: omarmc4@
Suggest correction
Give kudos to tab author, rate the tab!
1 2 3 4 5
comments
print report bad tab
guest
You may want to rate the tab now too:
select rating
Wanna post a correction for this tab? Suggest correction