Oops, an error
Loading. Please wait.

Ya Que No Estás Tab

version 2
version 2

Whole song

by Octavia
13 views 1 this week
no commentswrite comment
1 2 3 4 5
3 more votes to show rating
add to favorites
launch autoscroll
font size
0
reset
how to read this tab
guitar tuner
×
Best way to learn
"Ya Que No Estás"
Autoscroll
slow
fast
+/-
esc
set tempo
stop
CORRECCION DEL PUNTEO
LP CICLOS

TRANSCRITO POR: Omar Miranda
4/08/2002

Esta es la corrección del punteo

PUNTEO:

  Am                          G                Dsus2
e--10/12----10-------------|--------------------------------------
G-------------13-12-8-8/10-|-(10)----6-8/10----6-3---------------- 
B--------------------------|--------------------------------------
D--------------------------|--------------------------------------
A--------------------------|--------------------------------------
E--------------------------|--------------------------------------
         Am                        G
e----------------------------------10/12---------------------
G-5-6/8--5-3---6-5---8-6---10-8-10--------------------------- 
B------------------------------------------------------------
D------------------------------------------------------------
A------------------------------------------------------------
E------------------------------------------------------------

CUALQUIR DUDA, CONCEJO O COMENTARIO 
POR FAVOR ESCRIBIR A: omarmc4@
Suggest correction
Give kudos to tab author, rate the tab!
1 2 3 4 5
comments
print report bad tab
guest
You may want to rate the tab now too:
select rating
Wanna post a correction for this tab? Suggest correction