Oops, an error
Loading. Please wait.

Ya Que No Estás Tab

version 3
version 3

Whole song

by Octavia
10 views 1 this week
no commentswrite comment
1 2 3 4 5
3 more votes to show rating
add to favorites
×
Save as Personal and add changes to this tab that will be seen only by you. Learn more ›
×
You can save this tab as Personal to edit and correct it or add notes. All changes will be seen only by you. Learn more »
save as personal
new!
launch autoscroll
font size
0
reset
how to read this tab
guitar tuner
Autoscroll
slow
fast
+/-
esc
set tempo
stop
INTRO X 2 VECES
LES ACONSEJO QUE LA PRIMERA, SEGUNDA Y TERCERA CUERDA LA TOQUEN 
CON EL DEDO INDICE Y DE LA CUARTA PARRIBA PUES CON EL DEDO 
MAS GRUESO Y CORTO QUE TENGAN

   Am                          G
E ---0-----0-0-----0-----0-0-----0-----0-1h0---0-----0-1h0
B -----1---1-0h1-----1---1-0h1-----1---1-1-------1---1-1--
G -------2-2-2---------2-2-2---------0-0-0---------0-0-0--
D --------------------------------------------------------
A -0-------------0----------------------------------------
E -----------------------------3-------------3------------

   D          D/F#          Am              G     
E ---2-----2------2-----2-2---0-----0-0-----3--------------
B -----3---3--------3---3-3-----1---1-0h1---3--------------
G -------2-2----------2-2-2-------2-2-2-----4--------------
D -0------------------------0---------------5--------------
A ------------------------------------------5--------------
E ------------3-2---------------------------3--------------

Am             G
Camino en mi soñar 
               D
y sueño al caminar 
    D/F#
que esos pasos 
Am           G
me conduzcan hacia ti


Am            G
Alcanzo a vacilar 
               D
vacilo al alcanzar 
  D/F#
aquel camino 
Am          G
que te separó de mi


F             A#
Más cuando yo bailo 
                F
(vuelvo a respirar) 
           A#
dejo mi letargo 
                Bm
(brillo un poco más) 
          F                Bm
por un instante puedo olvidar 
            F
todo mi quebranto

(ACOMPAÃ?A CON EL INTRO DE NUEVO)
MI eterna soledad


Hoy grito por salir 
y salgo a gritar 
tu nombre a cada esquina 
que te vio pasar

Cansado ya de andar 
andado en el cansancio 
le ordene a mis pies 
no dar un paso más

Más cuando yo bailo 
(vuelvo a respirar) 
dejo mi letargo 
(brillo un poco más) 
por un instante puedo olvidar 
todo mi quebranto
MI eterna soledad

SOLO
(SE LO ACOMPAÃ?A CON EL INTRO)

   Am               G                  D               Am
E 10s12---10-8-7------------------------------------------
B ----------------8-8s10---------10------------------------
G -------------------------10-12----10------9-10-12--------
D -------------------------------------12-----------10-----
A -----------------------------------------------------12--
E ---------------------------------------------------------
             G
E ---------------------------------------------------------
B ---------------------------------------------------------
G -9-9-10-10-12-12-----------------------------------------
D ---------------------------------------------------------
A ---------------------------------------------------------
E ---------------------------------------------------------


Más cuando yo bailo 
(vuelvo a respirar) 
dejo mi letargo 
(brillo un poco más) 
por un instante puedo olvidar 
todo mi quebranto
MI eterna soledad
Mi eterna soledad


---D/F#--- 
SIGNIFICA QUE DEBES HACER LA NOTA RE MAYOR 
PERO CON EL BAJO EN FA MAYOR SOSTENIDO
O SEA:


E -2-
B -3-
G -2-
D -0-
A -0-
E -2-
Suggest correction
Give kudos to tab author, rate the tab!
1 2 3 4 5
comments
print report bad tab
guest
Wanna post a correction for this tab? Suggest correction