Oops, an error
Loading. Please wait.

Lechonería Manson Tab

47 views 1 this week
no commentswrite comment
1 2 3 4 5
3 more votes to show rating
add to favorites
launch autoscroll
font size
0
reset
how to read this tab
guitar tuner
Autoscroll
slow
fast
+/-
esc
set tempo
stop
INTRO:
E|------------------------------------|
B|------------------------------------|
G|------------------------------------| X4
D|------------------------------------|
A|--1-1-1-----------0-0-0-------------|
E|--------2-2-2-2-2-------3-3-3-3-3---|

 A#5           F#5     A5           G5
Muerte a los cerdos, muerte a los cerdos
 A#5           F#5     A5           G5
Muerte a los cerdos, muerte a los cerdos
 A#5           F#5     A5           G5
Muerte a los cerdos, muerte a los cerdos
 A#5           F#5     A5           G5
Muerte a los cerdos, muerte a los cerdos

(INTRO CON PAL MUTE)
A#5  F#5   A5  G5
La lechoneria manson,
A#5    F#5     A5     G5
el lugar de la mejor lechona
A#5  F#5   A5  G5
la lechoneria manson,
A#5    F#5     A5     G5
atendida por toda su familia

A#5    G#5      D#5 D5
No queremos estudiar,
  A#5    G#5      D#5
ni tampoco queremos trabajar
A#5    G#5      D#5 D5
No queremos estudiar,
  A#5    G#5      D#5
ni tampoco queremos trabajar

E|----------------------------------|
B|----------------------------------|
G|----------------------------------|
D|-888-55555-777-55555--oing,oing¡--| X4
A|-888-55555-777-55555--------------|
E|-666-22222-555-33333--------------|

(INTRO CON PAL MUTE)
A#5  F#5   A5  G5
La lechoneria manson,
A#5    F#5     A5     G5
el lugar de la mejor lechona
A#5  F#5   A5  G5
la lechoneria manson,
A#5    F#5     A5     G5
atendida por toda su familia

A#5    G#5      D#5 D5
No queremos estudiar,
  A#5    G#5      D#5
ni tampoco queremos trabajar
A#5    G#5      D#5 D5
No queremos estudiar,
  A#5    G#5      D#5
ni tampoco queremos trabajar

INTERMEDIO: (SIN DISTORCION)
E|---------------------------------------|
B|---------------------------------------|
G|--------------------------------8------|
D|-----8~~-----8----------6~~---8----8---| X4
A|---8-------8----8-----6-----6-----6----|
E|-6-------6-----6----4------------------|

INTRO:
E|------------------------------------|
B|------------------------------------|
G|------------------------------------| X4
D|------------------------------------|
A|--1-1-1-----------0-0-0-------------|
E|--------2-2-2-2-2-------3-3-3-3-3---|

 A#5           F#5     A5           G5
Muerte a los cerdos, muerte a los cerdos
 A#5           F#5     A5           G5
Muerte a los cerdos, muerte a los cerdos
 A#5           F#5     A5           G5
Muerte a los cerdos, muerte a los cerdos
 A#5           F#5     A5           G5
Muerte a los cerdos, muerte a los cerdos

A#5    G#5      D#5 D5
No queremos estudiar,
  A#5    G#5      D#5
ni tampoco queremos trabajar
A#5    G#5      D#5 D5
No queremos estudiar,
  A#5    G#5      D#5
ni tampoco queremos trabajar

FINAL:
E|----------------------------------|
B|----------------------------------|
G|----------------------------------|
D|-888-55555-777-55555--oing,oing¡--|
A|-888-55555-777-55555--------------|
E|-666-22222-555-33333--------------|


ACORDES:
E|----X-----X-----X-----X-----X-----X----X----|
B|----X-----X-----X-----X-----X-----X----X----|
G|----3-----X-----X-----X-----X-----8----7----|
D|----3-----4-----7-----5-----6-----8----7----|
A|----1-----4-----7-----5-----6-----6----5----|
E|----X-----2-----5-----3-----4-----X----X----|
     A#5   F#5    A5    G5   G#5   D#5   D5
Suggest correction
Give kudos to tab author, rate the tab!
1 2 3 4 5
comments
print report bad tab
guest
You may want to rate the tab now too:
select rating
Wanna post a correction for this tab? Suggest correction