Oops, an error
Loading. Please wait.

Sabogal Se Vomitó Tab

41 views 1 this week
no commentswrite comment
1 2 3 4 5
3 more votes to show rating
add to favorites
×
Save as Personal and add changes to this tab that will be seen only by you. Learn more ›
×
You can save this tab as Personal to edit and correct it or add notes. All changes will be seen only by you. Learn more »
save as personal
new!
launch autoscroll
font size
0
reset
how to read this tab
guitar tuner
Autoscroll
slow
fast
+/-
esc
set tempo
stop
INTRO Y VERSO: Niños traumatizados en un dia de noviembre,
E|----------------------------------|
B|----------------------------------|
G|-6~6666--6~66666--6~-6666--6~6666-| x8
D|-6~6664--6~66666--6~-6666--6~6666-|
A|-4~4444--4~44444--4~-4444--4~4444-|
E|----------------------------------|

CORO:
E|--------------------------------------|
B|--------------------------------------|
G|-444444444----------------------------|
D|-444444444-44444444-66666666-44444444-|
A|-222222222-44444444-66666666-44444444-|
E|-----------22222222-44444444-22222222-|

C#5        G#5
Sabogal se vomito,
A#5          G#5
Sabogal se vomitohoh.
C#5        G#5
Sabogal se vomito,
A#5          G#5
Sabogal se vomitohoh.


VERSO: Ni los psicoanalistas podran curar,
E|----------------------------------|
B|----------------------------------|
G|-6~6666--6~66666--6~-6666--6~6666-| x8
D|-6~6664--6~66666--6~-6666--6~6666-|
A|-4~4444--4~44444--4~-4444--4~4444-|
E|----------------------------------|

CORO:
E|--------------------------------------|
B|--------------------------------------|
G|-444444444----------------------------|
D|-444444444-44444444-66666666-44444444-|
A|-222222222-44444444-66666666-44444444-|
E|-----------22222222-44444444-22222222-|

C#5        G#5
Sabogal se vomito,
A#5          G#5
Sabogal se vomitohoh.
C#5        G#5
Sabogal se vomito,
A#5          G#5
Sabogal se vomitohoh.

INTERMEDIO:
GUITARRA:
E|----------------------------------|
B|----------------------------------|
G|-------4-------4--------4-------4-| x4
D|-----4-------4--------4-------4---|
A|---2-------2--------2-------2-----|
E|----------------------------------|

BAJO:
G|----------------------------------|
D|----------------------------------| X4
A|-2~~------------------------------|
E|---------2~~------4~~----2~~------|

C#5~   G#5~   A#5~    G#5~
Iahhhhhhhhhhhhhhhhoooo¡¡¡¡¡¡¡¡¡¡
C#5~    G#5~    A#5~
aahhhhhhhhhhhhhhiiiiiiiiiaaaaaaa¡¡¡
G#5~
completo¡¡¡¡

CORO:
E|--------------------------------------|
B|--------------------------------------|
G|-444444444----------------------------|
D|-444444444-44444444-66666666-44444444-|
A|-222222222-44444444-66666666-44444444-|
E|-----------22222222-44444444-22222222-|

C#5        G#5
Sabogal se vomito,
A#5          G#5
Sabogal se vomitohoh.
C#5        G#5
Sabogal se vomito,
A#5          G#5
Sabogal se vomitohoh.

FINAL:
E|------------|--------|
B|------------|--------|
G|-6~6666-----|--6-6-6-|
D|-6~6664--x7-|--6-6-6-|
A|-4~4444-----|--4-4-4-|
E|------------|--------|

ACORDES:
E|-----X-----X-----X-----|
B|-----X-----X-----X-----|
G|-----6-----X-----X-----|
D|-----6-----6-----8-----|
A|-----4-----6-----8-----|
E|-----X-----4-----6-----|
       C#5   G#5   A#5

EL INTERMEDIO SE PUEDE HACER TANTO EL BAJO COMO
LA GUITARRA EN UN SOLO INSTRUMENTO ASI:
E|------------------------------------|
B|------------------------------------|
G|---------4-------4--------4-------4-| x4
D|-------4-------4--------4-------4---|
A|-2~~-2-------2--------2-------2-----|
E|----------2~~------4~~-----2~~------|
Suggest correction
Give kudos to tab author, rate the tab!
1 2 3 4 5
comments
print report bad tab
guest
Wanna post a correction for this tab? Suggest correction