Oops, an error
Loading. Please wait.

El Último Chords

23 views 1 this week
no commentswrite comment
1 2 3 4 5
3 more votes to show rating
add to favorites
launch autoscroll
font size
0
reset
transpose
0
reset
display chords
guitar tuner
×
Best way to learn
"El último"
Autoscroll
slow
fast
+/-
esc
set tempo
stop
RIFF de la canción
e ----------------------------------------
B ----------------------------------------
G ----------7--7--------------------------
D --7--7----7--7----7--7---4--4-4-4-------
A --7--7----5--5----7--7---4--4-4-4-------
E --5--5------------5--5---2--2-2-2-------  x3

e -----------------------
B -----------------------
G -----------------------
D --4----4--5--6--7------
A --4----4--5--6--7------
E --2----2--3--4--5------


EL RIFF SIGUE EN LOS VERSOS

Desde hace un tiempo todo me ha salido mal
es como mi segunda casa este hospital
la enfermera, el terapeuta y muchos ceros en la cuenta,
me aconsejan que me olvide de ti.

Le pregunte al doctor, al cura y al guru,
si deberia llamar o ir donde estas tú
ni la ciencia ni la fé fueron muy buenas referencias,
todos dicen que me olvide de ti.

CORO:
 A            E       F#m          E
  Pues soy el unico tarado que no ve
 A         E        F#m           E
  y soy el unico pendejo que te cree
            A         E
  yo soy el unico, el ultimo,
     F#m       E          A    E  F#m  D
  el unico pendejo que te cree.


RIFF intermedio
e ----------------------------------------
B ----------------------------------------
G ----------7--7--------------------------
D --7--7----7--7----7--7---4--4-4-4-------
A --7--7----5--5----7--7---4--4-4-4-------
E --5--5------------5--5---2--2-2-2------- x2


EL RIFF SIGUE EN LOS VERSOS:
Esta mañana me pensaba suicidar
pero el telefono no deja de sonar
y es la cuarta o quinta vez que me interrumpen este mes
yo ya no tengo tiempo para mi.


Le pregunte a un amigo, al doctor chino y al rabi
hice llorar al wey del taxi hablandole de ti
el macho de Jalisco y el marica en San Francisco
me aconsejan que me olvide de ti.

CORO

F#m
Yo soy el unico,
yo soy el ultimo estupido
F#m G G# A
           que te cree.


LA BASE DEL SOLO ES EL RIFF


AQUÍ SIGUE EL RIFF IGUAL:
Hace unos meses me soñaba en el altar
pasando el oso de bailar con tu mamá
nisiquiera tus hermanos meterian por ti las manos
todos dicen que me olvide de ti.

COROx2

-------------------
AlbertoMS
Suggest correction
Give kudos to tab author, rate the tab!
1 2 3 4 5
comments
print report bad tab
guest
You may want to rate the tab now too:
select rating
Wanna post a correction for this tab? Suggest correction