Oops, an error
Loading. Please wait.

Pequeño Rebelde Chords

version 1
version 1

Whole song

176 views 1 this week
no commentswrite comment
1 2 3 4 5
3 more votes to show rating
add to favorites
launch autoscroll
font size
0
reset
transpose
0
reset
simplify chords
display chords
guitar tuner
×
Best way to learn
"Pequeño Rebelde"
Autoscroll
slow
fast
+/-
esc
set tempo
stop
Intro:

Slide

E|---------------|
B|---------------|
G|---------------|
D|----------4----|
A|----0/5--------|
E|---------------|

y rapidamente se toca el acorde completo de G

G
Por ser bueno nunca medí el error
G                         G#m
Joven no entendí el amor
Am
Frágil nunca bebí enamorar
D7
Débil nunca lo pude olvidar
G
Fácil un blanco sencillo fui
G                         G#m
Torpe la burla no conocí
Am
Listo encontré la ingenuidad
D7
yo el que no a podido olvidar

CORO

Dm
La inocencia es cruel
G              G#
lo debes entender
C
el tiempo no repara
A
lo que una vez estuvo mal
Dm
y el precio caro es
G              G#
si logras entender
C
que lo que escoges Te hizo mal
A                       D            G
y el tiempo ya no  va a regresar

Slide

E|---------------|
B|---------------|
G|---------------|
D|---------4-----|
A|---0/5---------|
E|---------------|


Por ser bueno nunca medí el error
G                         G#m
Joven no entendí el amor
Am
Frágil nunca bebí enamorar
D7
Débil nunca lo pude olvidar
G
Fácil un blanco sencillo fui
G                         G#m
Torpe la burla no conocí
Am
Listo encontré la ingenuidad
D7
yo el que no a podido olvidar

CORO

Dm
La inocencia es cruel
G             G#
lo debes entender
C
el tiempo no repara
A
lo que una vez estuvo mal
Dm
y el precio caro es
G             G#
si logras entender
C
que lo que escoges Te hizo mal
A                       D            G
y el tiempo ya no  va a regresar

Solo:
es con los acordes del verso.

G,G#m,Am,D7

Se repite dos veses las 3 etapas

1ra primera etapa
E|------------------------------------|
B|----12---13---15-13-12-13-12--------|
G|--12---12---12----------------------|
D|------------------------------------|   x2
A|------------------------------------|
E|------------------------------------|
2da segunda etapa
E|----------------------------------------|
B|-----13----13-15----17-15-13-15-13-15-13|
G|--14----14-------14---------------------|
D|----------------------------------------|
A|----------------------------------------|
E|----------------------------------------|
3ra tercera etapa
E|---------------------------------------|
B|-----10---12-10----10----12-10-12------|
G|--11----11-------11----11----------12--|
D|---------------------------------------|
A|---------------------------------------|
E|---------------------------------------|


G,G#m,Am,D7
lalalala...

CORO

Dm
La inocencia es cruel
G              G#
lo debes entender
C
el tiempo no repara
A
lo que una vez estuvo mal
Dm
y el precio caro es
G               G#
si logras entender
C
que lo que escoges Te hizo mal
A                       D            G
y el tiempo ya no  va a regresar
Suggest correction
Give kudos to tab author, rate the tab!
1 2 3 4 5
comments
print report bad tab
guest
You may want to rate the tab now too:
select rating
Wanna post a correction for this tab? Suggest correction