Oops, an error
Loading. Please wait.

Riñones Al Jerez Tab

121 views 6 this week
no commentswrite comment
1 2 3 4 5
3 more votes to show rating
add to favorites
launch autoscroll
font size
0
reset
how to read this tab
guitar tuner
×
Best way to learn
"Riñones Al Jerez"
Autoscroll
slow
fast
+/-
esc
set tempo
stop
INTRO          x2                   x7
   e------------------------------------------
   b------------------------------------------
   g--9~~~~~-5h7~~~~~--------7-7-7h9-9--------
   d-------------------------7-7-7h9-9--------
   a-------------------------5-5-5h7-7--------
   e------------------------------------------

(Avanza de Re a Mi durante todo el verso)
Tengo los riñones al jerez
de tanto meter y tanto beber.
Tengo los riñones al jerez
y miro al walter y todo es de colores

       LA5              SI5           DO5
 e-----------------------------------------------------
 b-----------------------------------------------------
 g-----------------44-444-444-444-455-555-555-555------
 d-77-777-777-777-744-444-444-444-455-555-555-555------
 a-77-777-777-777-722-222-222-222-233-333-333-333------
 e-55-555-555-555-5------------------------------------
   Rojo-granadina, blanco..tequila,verde, verde menta

    MI5            RE5
 e-----------------------------------------------------
 b-----------------------------------------------------
 g--5h9~~~~~~~~~----7~~~~~~~~~-------------------------
 d--5h9~~~~~~~~~----7~~~~~~~~~--------------987--765---
 am 3h7~~~~~~~~~----5~~~~~~~~~--------------987--765---
 e------------------------------------------765--543---
   Y la espumita, la cervecita bien tira'

(Avanza de Re a Mi durante todo el verso)
Tengo los riñones al jerez
de tanto meter y tanto beber.
Tengo los riñones al jerez
y miro al walter y todo es de colores

(Igual que en el coro)
De rodillas en el albero,
echando el pato le rezo al suelo.
Me están pisando cien rocieros,
me están matando en tres por cuatro

(Se queda solo el bajo)
Gran papasso quillo (3x)

   MI5            RE5
 e---------------------------------------------------
 b---------------------------------------------------
 g--9~~~~~~~~~----7~~~~~~~~~-------------------------
 d--9~~~~~~~~~----7~~~~~~~~~--------------987--765---
 am 7~~~~~~~~~----5~~~~~~~~~--------------987--765---
 e----------------------------------------765--543---

(Todos con el coro)
Vaya morao que llevo en lo alto.
Vaya morao?????
Estoy nadando, en un gran vaso,
me estoy ahogando?????
En alcohol

          MI5           RE5
 e-----------------------------------------
 b-----------------------------------------
 g--9999999999999999-77777777--------------
 d--9999999999999999-77777777---987--765---
 am 7777777777777777-55555555---987--765---
 e------------------------------765--543---
    Vaya morao, vaya morao,
    vaya morao, vaya morao... (bis)

(Avanza de Re a Mi durante todo el verso)
Tengo los riñones al jerez
de tanto meter y tanto beber.
Tengo los riñones al jerez
y miro al walter y todo es de colores
al jerez, al jerez,...

        RE5-RE#5-MI5
 e----------------------------------------------------------
 b----------------------------------------------------------
 g---------7-8-9-----7-8-9-----7-8-9-----7-8-9--789-789-78--
 d---------7-8-9-----7-8-9-----7-8-9-----7-8-9--789-789-78--
 a---------5-6-7-----5-6-7-----5-6-7-----5-6-7--567-567-56--
 e----------------------------------------------------------
  Al jerez, al jerez, al jerez, al jerez

    LA5       SI5   DO5-RE5       MI5
     ¡Valla morao que tengo en lo alto!

   no se ke mas decir.... cualkier duda... kshimba_funk@
Suggest correction
Give kudos to tab author, rate the tab!
1 2 3 4 5
comments
print report bad tab
guest
You may want to rate the tab now too:
select rating
Wanna post a correction for this tab? Suggest correction