Oops, an error
Loading. Please wait.

Tiritas Del Corazón Tab

52 views 3 this week
no commentswrite comment
1 2 3 4 5
3 more votes to show rating
add to favorites
launch autoscroll
font size
0
reset
how to read this tab
guitar tuner
Autoscroll
slow
fast
+/-
esc
set tempo
stop
Por: Nico Ortiz 
Asunciòn - Paraguay
nicoasis@
:::::::::::::::::::::::::::

La forma en que esta transcripta la canciòn es ideal para tocarla
con dos guitarras (una hace la punteada y la otra el acompañamiento)
pero si estas en uno de tus dìas solitarios, es mejor que en el momento 
del punteado, no lo hagas, es decir, toca solo el acompañamiento, 
(también podes hacer el acompañamiento silbando el punteado, no queda nada mal...)
porque si haces el punteado solo no queda muy bien... pero bueno
esta es una recomendaciòn, vos haces lo que quieras...

No se muy bien la letra, asi que les ruego su comprensión...


 (( INTRODUCCIÒN ::.

&|       C     D      Em         C      D     G
E|------10-9-7-5-5/3-5-7--|------10-9-7-5----------------|
F|-7/8--------------------|-7/8-----------8-7-8--5-3-1-0-|
G|------------------------|------------------------------|
D|------------------------|------------------------------|
A|------------------------|------------------------------|
E|------------------------|------------------------------|
        (&: Acompañamiento)

G                    
Dejame contarte amigo
D
comparto el dolor contigo
     C           G
me duele tanto amigo
      Bm
que a ella...
C          D
le paso lo mismo

G
Su sonrisa se me clava, 
D
como una flecha en el alma
  C             G
ahora no me explico 
   Bm
porque...
C               D
me siento tan frio

 (( ESTRIBILLO ::.

D                                     Bm
Ay-ay-ay-ay-ay-ay-ay como extraño su amor
A                 G                  Bm
me duele tanto saber que ya no esta hoy
A                 G                    Bm
Ay-ay-ay-ay-ay-ay-ay cuando escucho su voz
G                 A            D
Se me parte en tiritas el corazòn


&|       C     D      Em         C      D     G
E|------10-9-7-5-5/3-5-7--|------10-9-7-5----------------|
F|-7/8--------------------|-7/8-----------8-7-8--5-3-1-0-|
G|------------------------|------------------------------|
D|------------------------|------------------------------|
A|------------------------|------------------------------|
E|------------------------|------------------------------|

LO QUE SIGUE DE LA CANCIÒN CON LOS ACORDES DEL COMIENZO...

 (( ESTRIBILLO 2 VECES ::.

D                                     Bm
Ay-ay-ay-ay-ay-ay-ay como extraño su amor
A                 G                  Bm
me duele tanto saber que ya no esta hoy
A                 G                    Bm
Ay-ay-ay-ay-ay-ay-ay cuando escucho su voz
G                 A            D
Se me parte en tiritas el corazòn

 (( PUNTEADA FINAL ::.
  
&|     C     D      Em         C      D     Am         Am   #   C   G
E|----10-9-7-5-5/3-5-7--|------10-9-7-5---------8-----|-0-|-0-|-0-|-3-|
F|-7/8------------------|-7/8-----------8-7-5-8---8-5-|-1-|-2-|-1-|-0-|
G|----------------------|-----------------------------|-2-|-1-|-0-|-0-|
D|----------------------|-----------------------------|-2-|-0-|-2-|-0-|
A|----------------------|-----------------------------|-0-|-X-|-3-|-2-|
E|----------------------|-----------------------------|-X-|-X-|-X-|-3-|
Suggest correction
Give kudos to tab author, rate the tab!
1 2 3 4 5
comments
print report bad tab
guest
You may want to rate the tab now too:
select rating
Wanna post a correction for this tab? Suggest correction