Oops, an error
Loading. Please wait.

Buen Día Chords

7 views 1 this week
no commentswrite comment
1 2 3 4 5
3 more votes to show rating
add to favorites
launch autoscroll
font size
0
reset
transpose
0
reset
display chords
guitar tuner
×
Best way to learn
"Buen Día"
Autoscroll
slow
fast
+/-
esc
set tempo
stop
INTRO
e|-------------------|-
B|-------------------|-
G|----------2-2-2-2--|-
D|----------2-2-2-2--|-   x4
A|--2-2-2-2-0-0-0-0--|-
E|--3-0-0-3----------|-

     E                A               E       A
Buen día buen amigo es otro día para darle!!
   E                  A                      E    A
Están todas las fichas sobre el paño de tu piel
     E               A                     E    A
Tu chica juega a color para ganar o empatarte
    E                A            E     A
Pero vos? coronas el 17 hasta vencer?

Ya me fui, ya me voy, me perdí!  Ya no aguanto el deseo!
Ya me fui, ya me voy, no lo ves?  Ya no aguanto el dolor!
Empujamos la historia hasta el límite del sentimiento
Hey amor! Este juego termina venciendo al temor

B      A                E
 Esta vez no pude encontrarte
B      A                E
 Esta vez me quemó tu amor
B      A                E
 Esta vez no pude esperarte
B            A                       E
 Esta vez rompí hasta el silencio de tu voz.

intro

Me lo digas o no, o lo escondas detrás de la risa
Yo lo veo en sus caras, a todos le da miedo amar
Y los veo peinando las fichas del mágico juego
Y la banca repartiendo cielo e infierno al azar!!

Ya me fui, ya me voy, me perdí!  Ya no aguanto el deseo!
Ya me fui, ya me voy, no lo ves? Ya no aguanto el dolor!
Empujaste la historia hasta el límite del sentimiento
Hey mi amor!  Este juego termina venciendo al temor

Esta vez no pude encontrarte
Esta vez me quemó tu amor
Esta vez no pude esperarte                    B5 B5 B5
Esta vez rompí hasta el silencio de tu voz.

Solo: E A x 8

Esta vez no pude encontrarte
Esta vez me quemó tu amor
Esta vez no pude esperarte
Esta vez rompí hasta el silencio de tu voz.

e|-----------------------------------------------------|-
B|-----------------------------------------------------|-
G|-----------------------------------------------------|-
D|--0/2-2-0---------0/2-2-0---------0/2-2-0----------2-|-
A|----------2-1-0-----------2-1-0-----------2-1-0----2-|-
E|----------------3---------------3---------------3--0-|-

--------------------------------------------------------------
Bahia Blanca

                                             _____Anibal#87 RnR
Suggest correction
Give kudos to tab author, rate the tab!
1 2 3 4 5
comments
print report bad tab
guest
You may want to rate the tab now too:
select rating
Wanna post a correction for this tab? Suggest correction