Oops, an error
Loading. Please wait.

Buen Día Tab

2 views 1 this week
no commentswrite comment
1 2 3 4 5
3 more votes to show rating
add to favorites
launch autoscroll
font size
0
reset
how to read this tab
guitar tuner
Autoscroll
slow
fast
+/-
esc
set tempo
stop
Help us to improve Ultimate-Guitar.com Take our survey!
×
INTRO-riff1
e|---------------------------------|
B|---------------------------------|
G|------------2-2-------2---0------|
D|------------2-2-2-2-2------------|x4
A|------2-2---0-0-0-0-0---0--------|
E|--3p2-0-0-3----------------------|

     E                A                    riff1
Buen día buen amigo es otro día para darle!!
   E                  A                        riff1
Están todas las fichas sobre el paño de tu piel
     E               A                       riff1
Tu chica juega a color para ganar o empatarte
    E                A              riff2
Pero vos? coronas el 17 hasta vencer?

        E                   A                         riff3
Ya me fui, ya me voy, me perdí!  Ya no aguanto el deseo!
        E                    A                        riff3
Ya me fui, ya me voy, no lo ves?  Ya no aguanto el dolor!
        E                    A                     riff3
Empujamos la historia hasta el límite del sentimiento
        E                    A               riff3
Hey amor! Este juego termina venciendo al temor


B      A                E
 Esta vez no pude encontrarte
B      A                E
 Esta vez me quemó tu amor
B      A                E
 Esta vez no pude esperarte
B            A                       E     riff4
 Esta vez rompí hasta el silencio de tu voz.

intro

Me lo digas o no, o lo escondas detrás de la risa
Yo lo veo en sus caras, a todos le da miedo amar
Y los veo peinando las fichas del mágico juego
                                              riff5
Y la banca repartiendo cielo e infierno al azar!!

Ya me fui, ya me voy, me perdí!  Ya no aguanto el deseo!
Ya me fui, ya me voy, no lo ves? Ya no aguanto el dolor!
Empujaste la historia hasta el límite del sentimiento
Hey mi amor!  Este juego termina venciendo al temor

Esta vez no pude encontrarte
Esta vez me quemó tu amor
Esta vez no pude esperarte                    B5 B5 B5
Esta vez rompí hasta el silencio de tu voz.

Solo: E A x 8

Esta vez no pude encontrarte
Esta vez me quemó tu amor
Esta vez no pude esperarte
Esta vez rompí hasta el silencio de tu voz.

 FINAL:
e|-----------------------------------------------------|-
B|-----------------------------------------------------|-
G|-----------------------------------------------------|-
D|--0/2-2-0---------0/2-2-0---------0/2-2-0----------2-|-
A|----------2-1-0-----------2-1-0-----------2-1-0----2-|-
E|----------------3---------------3---------------3--0-|-

------------------------------------------------------------------------------


riff2                               riff3
e|-------------------------|        e|-----------------------------|
B|-------------------------|        B|-----------------------------|
G|-----------2-------------|        G|----------------2-2----------|
D|-----------2-------------|        D|----------------2-2-2-4-5-4--|
A|------2-2--0-------------|        A|--2------------0--0-0-0-0-0--|
E|--3p2-0-0-3--------------|        E|--0-0-3-0-2-0-3--------------|


riff4                               riff5
e|--------------------------|       e|----------------|
B|----/9-9~-----------------|       B|----/9-9~-------|
G|----/9-9~-----------------|       G|----/9-9~-------|
D|--------------9-9~--------|       D|----------------|
A|--------------9-9~--------|       A|----------------|
E|--------------------------|       E|----------------|

********************************************************************

bueno aca les dejo una modificacion de
la version anterior que subieron donde los
acordes estaban bien pero le agregue unos riffs que el tema
sin ellos no queda igual.
el solo lo estoy sacando, cuando lo tenga completo lo subo.
saludos! aguante lujan!!!

cualquier duda o correccion: face
Suggest correction
Give kudos to tab author, rate the tab!
1 2 3 4 5
comments
print report bad tab
guest
You may want to rate the tab now too:
select rating
Wanna post a correction for this tab? Suggest correction