Oops, an error
Loading. Please wait.

Si No Estás Tú Chords

18 views 1 this week
no commentswrite comment
1 2 3 4 5
3 more votes to show rating
add to favorites
launch autoscroll
font size
0
reset
transpose
0
reset
simplify chords
display chords
guitar tuner
Autoscroll
slow
fast
+/-
esc
set tempo
stop
Help us to improve Ultimate-Guitar.com Take our survey!
×
(riff 1)
. . Em
E-----------------------------------------
B-----------------------------------------
G-----------------------------------------
D--2-----0-2-----0-2-----0-2-----0-2-
A------2--------2-------2--------2------
E-----------------------------------------
(riff 2)
. . D
E-----------------------------------------
B-----------------------------------------
G-----------------------------------------
D--0-------0--------0-------0--------0-
A------0-2-----0-2-----0-2-----0-2----
E-----------------------------------------

Em             D
Si tu te vas  ya no podre vivir
Em            A                 D
y yo sin ti  no volvería a sonreír
D               Em    A             D
Que puedo hacer Amoooor si no estas tu
Em       D
Ya lo se que vivo de tu amor
Em          A                   D
y ya sin ti me dolería el corazón
D               Em   A               D
Que puedo hacer Amoooor si no estas tu
Em           F#m                G              G F#m Fm
Y aquí estoy lamentando tu amor Cual fue la ilusión
E       A                F#m            B7
Nena si no regresas a mi perderé el control
Em            D
Si tu te vas  ya no podre vivir
Em          A                    D
y yo sin ti no volvería a ser feliz
D               Em    A              D
Que puedo hacer Amoooor si no estas tu
D               Em    A              D
Que puedo hacer Amoooor si no estas tu
Em   A               D
Amoooor si no estas tu
Em   A               D
Amoooor si no estas tu
Em   A               D
Amoooor si no estas tu
Suggest correction
Give kudos to tab author, rate the tab!
1 2 3 4 5
comments
print report bad tab
guest
You may want to rate the tab now too:
select rating
Wanna post a correction for this tab? Suggest correction