Oops, an error
Loading. Please wait.

Desilusióname Chords

19 views 1 this week
no commentswrite comment
1 2 3 4 5
3 more votes to show rating
add to favorites
×
Save as Personal and add changes to this tab that will be seen only by you. Learn more ›
×
You can save this tab as Personal to edit and correct it or add notes. All changes will be seen only by you. Learn more »
save as personal
new!
launch autoscroll
font size
0
reset
transpose
0
reset
simplify chords
display chords
guitar tuner
Autoscroll
slow
fast
+/-
esc
set tempo
stop
Strumming
There is no strumming pattern for this song yet. and get +5 IQ
Con capo en el 1er traste:

Intro: A - D - F#m - Bm - G - D - A

 e|-----------------------------------------------------------------------|
 B|--8-9-9/11--------11-11/13-11---------6-8-8/9---6/8--------------------|
 G|-----------8...---------------8-7-8.------------------8-7--------------|
 D|----------------------------------------------------------10.-8--------|
 A|----------------------------------------------------------------11-9.--|
 E|-----------------------------------------------------------------------|

  D                                   A
 Dame la oportunidad de no pensar en ti
                                 Bm
 y no soñarte mas para poder seguir
                                G
 y ya no estar atada a tu recuerdo.

  D                                 A
 Déjame sufrir en paz dame la soledad
                                   Bm
 y ya no vuelvas mas desátame de ti para que el viento sople
                 G                       A
 y se lleve muy lejos todo lo que fui.

 F#m7     G         F#m         D
 Hoy te pido solo una razón para olvidarte
  G - F#m - Em                     A
 Destroza de una vez mi pobre corazón.

(Coro)
            D        A                Bm        F#m
 Desilusióname te pido no tengas compasión conmigo
                   G                               A
 Hazme cruzar la línea del amor al odio para conseguir tu olvido.
            D       A                 Bm       F#m
 Desilusióname te pido hazme caer al fin vencida
                    G
 Enséñame al final que no eres tan perfecto
                 A                F#m - Bm - G - A
 que esto de adorarte no tiene sentido.

 e|---------------------------------11.--9/10-8-8-6-8-6.--|
 B|--8-9-9/11-----------6-8-8/9-8-9-----------------------|
 G|-------------------8-----------------------------------|
 D|-----------8-8/10--------------------------------------|
 A|-------------------------------------------------------|
 E|-------------------------------------------------------|

  D                                       A
 Deja mi imaginación dime que alguien llegó
                                      Bm
 que no sentiste amor dentro del corazón
                                     G
 y que fingías todas todas tus caricias.

  F#m7     G            F#m             D
 Hoy te pido solo una razón para olvidarte
   G  - F#m - Em                  A
 Destroza de una vez mi pobre corazón.

(Coro)

            D        A                Bm        F#m
 Desilusióname te pido no tengas compasión conmigo
                   G                               A
 Hazme cruzar la línea del amor al odio para conseguir tu olvido.
            D       A                 Bm       F#m
 Desilusióname te pido hazme caer al fin vencida
                    G
 Enséñame al final que no eres tan perfecto
                 A
 que esto de adorarte

C                  G                    D
 No me mires más así que no puedo soportar
                                           A
 esta agonía saber que no eres mío y que nunca lo serás.
C                   G                A
 Fuiste todo para mi ya no puedo respirar entrégame la libertad.

           D#       Bb - Cm - Gm
 Desilusióname....
                   G#                               Bb
 Hazme cruzar la línea del amor al odio para conseguir tu olvido.
            D#       Bb               Cm       Gm
 Desilusióname te pido hazme caer al fin vencida
                    G#
 Enséñame al final que no eres tan perfecto
                 Bb                  Gm - Cm - G# - Bb...(con el final)
 que esto de adorarte...no tiene sentido,

 Final:
 e|------------------------------------12...--|
 B|---9-10-10/12...----7-9-9/10-9--10---------|
 G|-------------------------------------------|
 D|-9-----------------------------------------|
 A|-------------------------------------------|
 E|-------------------------------------------|

              D#...
 no tiene sentido.

 *Cualquier duda o error, avisa x msn xfa...xD
Suggest correction
Give kudos to tab author, rate the tab!
1 2 3 4 5
comments
print report bad tab
guest
Wanna post a correction for this tab? Suggest correction