Oops, an error
Loading. Please wait.

A Redoblar Chords

version 2
version 2

Whole song

88 views 1 this week
no commentswrite comment
1 2 3 4 5
3 more votes to show rating
add to favorites
×
Save as Personal and add changes to this tab that will be seen only by you. Learn more ›
×
You can save this tab as Personal to edit and correct it or add notes. All changes will be seen only by you. Learn more »
save as personal
new!
launch autoscroll
font size
0
reset
transpose
0
reset
simplify chords
display chords
guitar tuner
Autoscroll
slow
fast
+/-
esc
set tempo
stop
Strumming
There is no strumming pattern for this song yet. and get +5 IQ
Los acordes no son muy comunes, pero queda muy bien.

Dm             A7
Volverá la alegría
     Gm6 M         A7(2)
A enredarse con tu voz
    Dm           A7/E
A medirse en tus manos
     Gm7/D         C#5-
Y apoyarse en tu sudor

    Gm/Bb              A7
Borrará duras muecas pintadas
         Gm6 M              A7
Sobre un frágil cartón de silencio
      Gm/Bb                A*
Y en aliento de murga saldrá?


A redoblar (x4)
  Dm
A redoblar muchachos esta noche
     Gm6 M
Cada cual sobre su sombra
Cada cual sobre su asombro,
      A7(2)
A redoblar, desterrando?
         Gm(1)            Gm7
Desterrando la falsa emoción
    Gm6 M -Gm(2)      A7(2)
El la la la, el beso fugaz
        C#5-        Dm**
La margarita de la fe.

A redoblar (x4)
A redoblar muchachos que la noche
Nos presta sus camiones
Y en su espalda de balcones y zaguán
Nos esperan, nos esperan
Otros redoblantes, otra voz,
Harta de sentir
La mordedura del dolor?

   Dm
A redoblar, muchachos la esperanza
    Gm7                         Gm6 M
Que su latido insista en nuestra sangre
                    A7(2)       C#5-
Para que esta nunca olvide su rumbo.

          Dm         A/E
Porque el corazón no quiere
    Gm7/D       C#5-    A7(2)
Entonar mas retiradas!!!


A* dejar sonar La al aire.
Dm** parada rítmica en el acorde.

Acordes:

    A7       A7(2)     Dm       Gm6 M     A7/E      Gm7/D
1|-----x  1|-----x  1|-----   1|-----x  1|-----   1|-----
2|--5--x  2|--2--x  2|--6--x  2|--3--x  2|--8--x  2|--6--x
3|--6--x  3|-----x  3|--7--x  3|--3--x  3|--6--x  3|--3--x
4|--5--x  4|--2--x  4|--7--x  4|--2--x  4|--7--x  4|--5--x
5|-----   5|-----x  5|--5--x  5|-----   5|--7--x  5|--5--x
6|--5--x  6|-----   6|-----   6|--3--x  6|-----   6|-----

  C#5-      Gm/Bb      Gm7      Gm(1)     Gm(2)      A/E
1|-----x  1|-----x  1|-----   1|-----   1|-----   1|-----x
2|--5--x  2|--8--x  2|--3--x  2|--3--x  2|--3--x  2|--5--x
3|-----x  3|--7--x  3|--3--x  3|--3--x  3|--3--x  3|--6--x
4|--5--x  4|--5--x  4|--3--x  4|--5--x  4|-----x  4|--7--x
5|--4--x  5|-----x  5|-----   5|-----   5|-----   5|--7--x
6|-----   6|--6--x  6|--3--x  6|--3--x  6|--3--x  6|-----x

X - son las cuerdas que se tocan en el acorde

Espero que les guste. Cualquier consulta mi mail
Es       santiagogarcia328@
Suggest correction
Give kudos to tab author, rate the tab!
1 2 3 4 5
comments
print report bad tab
guest
Wanna post a correction for this tab? Suggest correction