Oops, an error
Loading. Please wait.

Estrofas De Amor Tab

46 views 1 this week
no commentswrite comment
1 2 3 4 5
3 more votes to show rating
add to favorites
launch autoscroll
font size
0
reset
how to read this tab
guitar tuner
Autoscroll
slow
fast
+/-
esc
set tempo
stop
Help us to improve Ultimate-Guitar.com Take our survey!
×
Estaba en un cancionero solo la transcribí

MIm-SI7-MIm
                                             DO          SI7
Dos motivos lindos son los ojos negros de tu cara angelical

e||--7X4--------|------7-12X2--12X5-11-14--|
B||------8-7----|----8---------------------|
G||----------9--|--9-----12X2--12X5-11-14--|

                                        MIm
El fuego de tu mirar me quemará, el corazón

e||-------------|------------|-------------|
B||---10X4-8-7--|--7X2-8-10--|--10X2-8-12--|
G||---11X4-9-8--|--7X2-9-11--|--11X2-9-12--|

                       MI7                   LAm
Si no quieres comprender estas estrofas de amor

e||--7X4-----7--|--12X4-10--9--8--|
B||------8-9----|--13X4-12-11-10--|
G||-------------|-----------------|

                                MIm
No me sigas mintiendo mujer hermosa

e||-----8-10-12X6--10---8--12--8--|
B||----10-12-13X6--12--10--13--7--|
G||-------------------------------|

                               SI7
Tus palabras son como las mariposas

e||-------------------------------|
B||-----8-10-12X6--10--8--12--10--|
G||-----9-11-12X6--11--9--12--11--|

                       MIm MI7      LAm                 MIm
Que vuelan de flor en flor. No me sigas diciendo cariño mío

e||-----------8-8-5-3--|--5-7--8X8--12--7--|
B||--7-8-10--10-7-7-5--|--7-8-10X8--13--8--|
G||--8-9-11------------|-------------------|

             SI7               MIm
Cuando te encuentras, lejos de mí

e||-----7X2-5--8-5---5X2--3--7----|
B||-----8X2-7-10-7---7X2--5--8----|
G||-------------------------------|

           LAm         MIm            SI7         MIm   MIm-SI7-DO-SI7-MIm
//Tan solo yo, puedo decir lo que es vivir lejos de ti//

e||-------8--------------------------------|
B||------10-10X2-8-12--8X2-7-10-10X2-8-12--|  X2
G||--9X3----11X2-9-12--9X2-8-11-11X2-9-12--|

Si no quieres comprender...
Suggest correction
Give kudos to tab author, rate the tab!
1 2 3 4 5
comments
print report bad tab
guest
You may want to rate the tab now too:
select rating
Wanna post a correction for this tab? Suggest correction