Oops, an error
Loading. Please wait.

Después De La Tormenta Tab

6 views 1 this week
no commentswrite comment
1 2 3 4 5
3 more votes to show rating
add to favorites
launch autoscroll
font size
0
reset
how to read this tab
guitar tuner
×
Best way to learn
"Después De La Tormenta"
Autoscroll
slow
fast
+/-
esc
set tempo
stop
INTRO:

E-----------------------------------------------------------------------
B--0--------0---1--------1---3-----3-1--------0-------0---1---1------1--
G--------0------------2---------0--------0---------0---------------2----
D------0------------2----------------------------0---------------2------
A---------------0------------2--------------------------------0---------
E--3------------------------------------------3-------------------------

E------3----2---------
B--3------------3-----
G------0--------------
D-----------0---------
A--2------------3-----
E--------------------

La misma secuencia del intro va en la estrofa
Suggest correction
Give kudos to tab author, rate the tab!
1 2 3 4 5
comments
print report bad tab
guest
You may want to rate the tab now too:
select rating
Wanna post a correction for this tab? Suggest correction