Oops, an error
Loading. Please wait.

Dormilón Tab

5 views 1 this week
no commentswrite comment
1 2 3 4 5
3 more votes to show rating
add to favorites
launch autoscroll
font size
0
reset
how to read this tab
guitar tuner
Autoscroll
slow
fast
+/-
esc
set tempo
stop
Help us to improve Ultimate-Guitar.com Take our survey!
×
Bueno aca el solo del tema:

e|-----------------------------------------------------------
b|-----------9-10--7h9-7h9~-7-----------------9-10-7h9-------
g|------8-9-------------------9h11-9h11-9h11~----------------
d|-9h11-----------------------------------------------11-11--
a|-----------------------------------------------------------
e|-----------------------------------------------------------

e|-----------------------------------------------------------
b|-----------------------------------------------------------
g|-----------------------------------------------------------
d|--11s9-----9s7-----7s6-----6s4-----4s2-----2s1-------------
a|-------11------9-------7-------6-------4-------2---6~~~~---
e|-----------------------------------------------------------

e|-----------------------------------------------------------
b|------------------------------12-10-9-10h9-----------------
g|-----------8-6-5-9-8-6-11-9-8---------------10-------------
d|--6--6-5---------------------------------------------------
a|-----------------------------------------------------------
e|-----------------------------------------------------------

e|--12----10---9---------------------------------------------
b|------9--------9--12---------------------------------------
g|-----------------------------------------------------------
d|-----------------------------------------------------------
a|-----------------------------------------------------------
e|-----------------------------------------------------------

h: HAMMER (martillo)

s: SLIDE (arrastre)

bueno cualquier recomendación: nazareno59@
Suggest correction
Give kudos to tab author, rate the tab!
1 2 3 4 5
comments
print report bad tab
guest
You may want to rate the tab now too:
select rating
Wanna post a correction for this tab? Suggest correction