Oops, an error
Loading. Please wait.

Llámame Tab

12 views 1 this week
no commentswrite comment
1 2 3 4 5
3 more votes to show rating
add to favorites
launch autoscroll
font size
0
reset
how to read this tab
guitar tuner
Autoscroll
slow
fast
+/-
esc
set tempo
stop
Help us to improve Ultimate-Guitar.com Take our survey!
×
INTRO: Em x4

  Em               | Em            | Em           | Em... |
e|12-----7------------------------12------------------|
B|----------------------------------------------------|
G|----------------------------------------------------|
D|----------------------------------------------------|
A|-7-7-7-7-7-7-7-7-7-7-7-7-7-7-7-7-7-7-7-7-7-7-7-7-...|
E|----------------------------------------------------|


Em                        Cmaj7
Vete donde quieras irte, no me llames para decirme
 Em                            Cmaj7
que en cualquier lugar estarás mejor.


Em                       Cmaj7
No veo nunca el momento de decir adiós a esto.
Em                          Cmaj7
Deja de restregarme tu decisión


Em                            Cmaj7
Dices que me echarás de menos, que volveremos a vernos...
Em                    Cmaj7
Otra vez esa puta canción.
Em                       Cmaj7
¿Cuánto tiempo me queda aguantando la pelea?
Em                   Cmaj7  D
No recuerdo dónde estaba yo.


ESTRIBILLO
 G                 F          C
No me digas que no sabías que esto se terminaría.
 G          F              C
No me pidas que viva tu vida...
G              F             C
No me digas que no sabías que esto se terminaría.
 G       F                C
Llámame si vuelves algún día...
C                   Em
Si vuelves algún día...


Em


Em                            Cmaj7
Encantada, adiós, muy buenas. Sé feliz en dónde sea.
Em                  Cmaj7
Fue bonito mientras duró
Em                            Cmaj7
No me mires con esa cara, tengo bastante con que te vayas.
Em                   Cmaj7  D
Prefiero pensar que es lo mejor.


ESTRIBILLO
G                 F          C
No me digas que no sabías que esto se terminaría.
 G          F              C
No me pidas que viva tu vida...
G              F             C
No me digas que no sabías que esto se terminaría.
 G       F                C
Llámame si vuelves algún día...

ESTRIBILLO
G                 F          C
No me digas que no sabías que esto se terminaría.
 G          F              C
No me pidas que viva tu vida...
G              F             C
No me digas que no sabías que esto se terminaría.
 G       F                C
Llámame si vuelves algún día...

C...


*En la estrofa, otra guitarra toca esto:
   Em                        Cmaj7
e|------------------------/-----------------------|
B|------------------------/-----------------------|
G|--------9-9-9-9-9-9-9---/--------9-9-9-9-9-9-9--|
D|----9-9-----------------/----9-9----------------|
A|--7---------------------/-----------------------|
E|------------------------/---8-------------------|

*En el estribillo también hace el mismo arreglo, pero no sé
exactamente cómo es, porque no lo escucho casi. Yo lo toco así:

  G5                    F5                  C5
e|--------------------/--------------------/--------------------|
B|------8-8-8-8-8-8-8-/------6-6-6-6-6-6-6-/--------------------|
G|--7-7---------------/--5-5---------------/------5-5-5-5-5-5-5-|
D|-5------------------/-3------------------/--5-5---------------|
A|--------------------/--------------------/-3------------------|
E|--------------------/--------------------/--------------------|

*El C del final es
e|------------------------|
B|--------5-5-5-5-5-5-5---|
G|----5-5-----------------|
D|------------------------|
A|--3---------------------|
E|------------------------|


Con esos arreglos no haría falta rasguear acordes,
pero dejo aquí algunos:

Em 022000 / 079987 / x799   D  xx0232 / x57775
G  320033 / 355433 / xx578  F 133211  / xx3556
C x32000  / x35453 / 8109xxx


Espero que os sirva.
Si tenéis alguna duda, comentario o
cualquier otra cosa, al mail.


Saludos ^^
Suggest correction
Give kudos to tab author, rate the tab!
1 2 3 4 5
comments
print report bad tab
guest
You may want to rate the tab now too:
select rating
Wanna post a correction for this tab? Suggest correction