Oops, an error
Loading. Please wait.

Fernando - Consuelo Tab

11 views 1 this week
no commentswrite comment
1 2 3 4 5
3 more votes to show rating
add to favorites
×
Save as Personal and add changes to this tab that will be seen only by you. Learn more ›
×
You can save this tab as Personal to edit and correct it or add notes. All changes will be seen only by you. Learn more »
save as personal
new!
launch autoscroll
font size
0
reset
how to read this tab
guitar tuner
Autoscroll
slow
fast
+/-
esc
set tempo
stop
Intro:

e---------------------------------------------------|
b---------------------------------------------------|
g---------------------------------------------------|
D---------------0-----------------0-----------------|
A----0---1---3---------0---1---3--------------------|
E-3----------------------------------3--------------|

e---------------------------------------------------|
b---------------------------------------------------|
g---------------------------------------------------|
D---------------0-----------------0-----------------|
A----0---1---3---------0---1---3--------------------|
E-3----------------------------------3--------------|

Flauta (arreglado para guitarra)
e--11--10------11--10--8-----------8----------------|
b---------11--------------11--10-----11--10---------|
g---------------------------------------------------|
D---------------------------------------------------|
A---------------------------------------------------|
E---------------------------------------------------|

e-8------------------11-10----11-10-8--------666666-|
b---11--11--10--8----------11---------11-10---------|
g---------------------------------------------------|
D---------------------------------------------------|
A---------------------------------------------------|
E---------------------------------------------------|
SOLm
Una historia que nació al azar
LA#
a la orilla del mar
FA
una diosa bajó
            RE
y entre las ropas se metió.
SOLm
Desde entonces tienes un imán
LA#
y a tu cuerpo se van
FA
las miradas de todos
       RE
por tu modo de bailar.
RE
Baila, Consuelo
            SOLm 
suéltate el pelo, mi reina
          RE
donde me lleven tus piernas
        RE
te seguiré. 
RE
Baila, Consuelo
          SOLm
que me desvelo por verte
         RE
cómo quisiera la suerte
         SOLm
de tu querer.

Intermedio 1
e---555--6--8----666--8--10---8-8-8---10--11--10----|
b---777--8--10---888--10-11---101010--11--13--11----|
g-7-------------------------------------------------|
D---------------------------------------------------|
A---------------------------------------------------|
E---------------------------------------------------|

e-11-11--10-11-10--13-10-13-10-14-14-14-------------|
b-13-13--11-13-11-----------------------------------|
g---------------------------------------------------|
D---------------------------------------------------|
A---------------------------------------------------|
E---------------------------------------------------|
RE
Baila, Consuelo
          SOLm
como una diosa hermosa
           RE
tierna por dentro
                      SOLm  
por fuera fuego en la piel.

Intermedio 2:
            ohohohohoh      ohohohohohoh
e---------------------------------------------------|
b-------1-3-----------------3-2-3-2-3---------------|
g-0-2-3-------------------------------0-------------|
D---------------------------------------------------|
A---------------------------------------------------|
E---------------------------------------------------|
DOm
Atrapado por la situación
LA#
manejado por una pasión
FA
atraviesas en mi corazón
    RE
una flecha de tu amor.
RE
Baila, Consuelo
         SOLm
para que goce la gente
         RE
mueve tu cuerpo caliente
       SOLm
con tu sabor.
RE
Baila, Consuelo
            SOLm 
suéltate el pelo, mi reina
          RE
donde me lleven tus piernas
        RE
te seguiré. 

Intermedio 1 y 2
RE               SOLm
Baila, Consuelo, sueltate el pelo
RE               SOLm
Baila, mi reina, mueve tus piernas

Frase:
e----------------------------------------|
b----------------------------------------|
g----------------------------------------|
D--------------0-------------------------|
A----0-1--3--4---------------------------|
E--3-------------------------------------|

 
Baila, Consuelo.....

Baila, Consuelo......

Esta se la dedico a Silvana mi gran amiga y cosuelo
cuando no estoy bien. En serio que te quiero mucho!!

Eso es todo, espero que la disfruten. Dudas,
comentarios a ladiscepolo@
Suggest correction
Give kudos to tab author, rate the tab!
1 2 3 4 5
comments
print report bad tab
guest
Wanna post a correction for this tab? Suggest correction