Oops, an error
Loading. Please wait.

Fernando - Lo Dejo Todo Chords

5 views 1 this week
no commentswrite comment
1 2 3 4 5
3 more votes to show rating
add to favorites
×
Save as Personal and add changes to this tab that will be seen only by you. Learn more ›
×
You can save this tab as Personal to edit and correct it or add notes. All changes will be seen only by you. Learn more »
save as personal
new!
launch autoscroll
font size
0
reset
transpose
0
reset
simplify chords
display chords
guitar tuner
Autoscroll
slow
fast
+/-
esc
set tempo
stop
Strumming
There is no strumming pattern for this song yet. and get +5 IQ
Intro:

  Am            Dm        G
e-8-----7-----5--5-----4----5-----3-------------|
b-----5-----5--------6----------3-----3---------|
g---5-----5--------7----------4-----4-----------|
D----------------0------------------------------|
A-0-----0-----0---------------------------------|
E---------------------------3-----3-------------|

  C            Dm
e-3------3--------------7/8--7-----------7--5---|
b------1---------6---6-------------5---5--------|
g----0-------------7-----------------5----------|
D----------------0------------------------------|
A-3--------------------------0-----0-----0------|
E-----------------------------------------------|

e-----------------------------------------------|
b-1--0------------------5--------5-------5----5-|
g------2---2--1-------5--------5-------5-----5--|
D-------------------7--------7-------7------7---|
A-0---------------0--------0-------0------0-----|
E----------0------------------------------------|

Am                  Dm
Sabes que me he dado cuenta
      E                Am
que entre nosotros algo pasa
   Am                 Dm
se puede ver más de la cuenta
   E                       Am
el fuego que arde entre las brasas.
Dm                Am
Voy a serte muy sincero
    Dm                 Am
hay una historia de antemano
         Dm                    Am
pero por ti, ya ves, me juego entero
        Am                Am
sólo preciso que me digas cuándo.
      Am               Dm
Si me das una señal, yo dejo todo
      G               C 
si me das una señal, te juro
       Dm                      
que me juego a cara o cruz
  Am
y no hay retorno
      Dm            E7
no lo pienso ni un segundo.
      Am               Dm
Si me das una señal, yo dejo todo
      G               C
Si me das una señal, te juro
       Dm                      Am
que me tiro de cabeza entre tus brazos
     Dm                   Am
y te sigo hasta el fin del mundo.

Inter:
 Am            
e------7-7----5-7/8--------7--5--7--8-8--7--5--4-|
b-----5-------------5----5-----------------------|
g---5------------------5-------------------------|
D------------------------------------------------|
A------------------------------------------------|
E------------------------------------------------|

Am             Dm
Sigo por una pendiente,
       E                     Am
no hay forma de parar, no hay frenos
   Am                    Dm
no pienso si es lo más prudente
   Dm                   E                  
ya sé que por tu amor me muero.
Dm             Am   
Desde que te vi espero
 Dm                  Am
pacientemente como un gato
         Dm                   Am
la hora exacta en que me digas quiero
        Dm                      Am
para saltarte, amor, desde el tejado.
      Am               Dm
Si me das una señal, yo dejo todo
      G               C 
si me das una señal, te juro
       Dm                      
que me juego a cara o cruz
  Am
y no hay retorno
      Dm            E7
no lo pienso ni un segundo.
      Am               Dm
Si me das una señal, yo dejo todo
      G               C
Si me das una señal, te juro
       Dm                      Am
que me tiro de cabeza entre tus brazos
     Dm                   Am
y te sigo hasta el fin del mundo.
Dm
Será cuestión de un día,
         Am
de dos o tres,
Dm            Am
te vestiré con besos
Dm            E7
y me pondré tu piel.
      Am               Dm
Si me das una señal, yo dejo todo
      G               C
Si me das una señal, te juro
       Dm                      Am
que me tiro de cabeza entre tus brazos
     Dm                   Am
y te sigo hasta el fin del mundo.
  
Final:          
e--5--8--7---------8--8--7--5---12-----|
b-----------5--6-----------------------|
g--------------------------------------|
D--------------------------------------|
A--------------------------------------|
E--------------------------------------|
 
Este tema se lo dedico a mi Vieja, a Rosi y 
todas sus amigas chaqueñas y/ Correntinas.

Dudas, comentarios: ladiscepolo@
Suggest correction
Give kudos to tab author, rate the tab!
1 2 3 4 5
comments
print report bad tab
guest
Wanna post a correction for this tab? Suggest correction