Oops, an error
Loading. Please wait.

Fernando - Nadie Lo Sabe Chords

10 views 3 this week
no commentswrite comment
1 2 3 4 5
3 more votes to show rating
add to favorites
×
Save as Personal and add changes to this tab that will be seen only by you. Learn more ›
×
You can save this tab as Personal to edit and correct it or add notes. All changes will be seen only by you. Learn more »
save as personal
new!
launch autoscroll
font size
0
reset
transpose
0
reset
display chords
guitar tuner
Autoscroll
slow
fast
+/-
esc
set tempo
stop
Strumming
There is no strumming pattern for this song yet. and get +5 IQ
Intro:
e--------------------------------------
b-5/6-5-6-5-5-----5/6-5-6/-8-6-5-------
g------------3-------------------2-----
D--------------------------------------
A--------------------------------------
E--------------------------------------

e---------------------------3-5-3-1----
b-3--5-3-3-----3-3-2----5-6------------
g--------------------------------------
D--------------------------------------
A--------------------------------------
E--------------------------------------
           Gm
Yo continuamente
           A
pienso que la gente
              Dm
te mira en la calle
         Gm
y sinceramente
               A
cuando estás ausente
               Dm
se me acaba el aire.
            Gm
Esos que te miran
              A
siento que suspiran
              Dm
por rodear tu talle
            Gm
sufro la agonía
               A
porque tu eres mía
           Dm
y nadie lo sabe.
           Gm
Déjame abrazarte
         Dm
déjame besarte
              A 
porque yo soy tuyo
            Dm
pase lo que pase.
                Gm
Y por más que encuentres
          Dm 
el mejor amante
           A
como yo te quiero
             Dm
no te quiere nadie.
Intermedio:
e--------------------------------------
b-5/6-5-6-5-5-----5/6-5-6/-8-6-5-------
g------------3-------------------2-----
D--------------------------------------
A--------------------------------------
E--------------------------------------
 
Estoy tan celoso
que imagino que otros
pueden alcanzarte
se les ve en la cara
que con la mirada
quieren desnudarte.

Esos que te miran
siento que suspiran
por rodear tu talle
sufro la agonía
porque tu eres mía
y nadie lo sabe.

Déjame abrazarte
déjame besarte
porque yo soy tuyo
pase lo que pase.

Y por más que encuentres 
el mejor amante
como yo te quiero
no te quiere nadie.

Déjame abrazarte
déjame besarte
porque yo soy tuyo
pase, pase lo que pase.

Y por más que encuentres 
el mejor amante
como yo te quiero
no te quiere nadie
no te quiere nadie....

La segunda parte va con los mismo acordes de la primera;
es bastante fácil
Espero que la disfruten, dudas, comentarios a 
ladiscepolo@

Dedicado para Rosita. Gracias por hacer que me interse
en sacar estos temas. Muchos cariños para vos.
Te quiero mucho!!!!!
Suggest correction
Give kudos to tab author, rate the tab!
1 2 3 4 5
comments
print report bad tab
guest
Wanna post a correction for this tab? Suggest correction