Oops, an error
Loading. Please wait.

Danni - Bésame Tab

6 views 1 this week
no commentswrite comment
1 2 3 4 5
3 more votes to show rating
add to favorites
launch autoscroll
font size
0
reset
how to read this tab
guitar tuner
Autoscroll
slow
fast
+/-
esc
set tempo
stop
Help us to improve Ultimate-Guitar.com Take our survey!
×
  El tema tiene tres punteos, el de la intro y el del
 puente son iguales: 
 

 E --------------------------------------------------
 B ----------0-1-1-1---0-0------------------0-0-1-3--
 G --0-0-0-2---------0-----2-2-0----2-2-2-2----------
 D --------------------------------------------------
 A --------------------------------------------------
 E --------------------------------------------------


 E --0-0-0----------------1-1-1-1-0------------------
 B --------1-3-3-1-1-0--------------3-1-3------------
 G --------------------------------------------------
 D --------------------------------------------------
 A --------------------------------------------------
 E --------------------------------------------------

  
  El punteo del final tiene una pequeña variación:

 E --------------------------------------------------
 B ----------0-1-1-1---0-0------------------0-0-1-3--
 G --0-0-0-2---------0-----2-2-0----2-2-2-2----------
 D --------------------------------------------------
 A --------------------------------------------------
 E --------------------------------------------------


 E --0-0-0----------------1-1-1-1-0------------------
 B --------1-3-3-1-1-0--------------3-1-0-1----------
 G --------------------------------------------------
 D --------------------------------------------------
 A --------------------------------------------------
 E --------------------------------------------------


-------------------------------------------------------

 Que lo disfruten. Comentarios o correciones:
     iceman_arq@
Suggest correction
Give kudos to tab author, rate the tab!
1 2 3 4 5
comments
print report bad tab
guest
You may want to rate the tab now too:
select rating
Wanna post a correction for this tab? Suggest correction