Oops, an error
Loading. Please wait.

Emanuel Arias - Hasta Que Seas Mía Tab

18 views 1 this week
no commentswrite comment
1 2 3 4 5
3 more votes to show rating
add to favorites
launch autoscroll
font size
0
reset
how to read this tab
guitar tuner
×
Best way to learn
"Emanuel Arias - Hasta Que Seas Mía"
Autoscroll
slow
fast
+/-
esc
set tempo
stop
INTRO:
E B  A C# B

  PUNTEO 1    PUNTEO 2
E|----9---|---------------|
B|-7-9-9--|-5-4H-5H-4-5H-4|
G|--------|---------------|
D|--1:15--|-----1:47------|
A|--------|---------------|
E|--------|---------------

E                 B    
Amanezco entre cenizas 
A                    C#   
Voy temblando sin poder 
           B      
Siquiera hablar 
E                   B   
Arrastrando mis heridas 
A               C#              B 
Pero no sé ni siquiera dónde estás 
  
F#                                    
Ser el aire que respiras 
       G#            B        
Ser el dueño de tu amor 
       F#                  
Poner fin a éste silencio 
            A          B    
Que me ha roto el corazón. 

C#     A         B           F#   
  Necesito volverte a encontrar 
C#     A             E5                              
  Y sentir que en tu cielo se 
  B    
Funde mi mar. 
C#     A             
  Y besarte otra vez 
 B      F#        A  PUNTEO  
Hasta que seas mía 
                  C# B 
Hasta que seas mía. 

Tu amor es un laberinto 
Un color que no consigo descifrar
En mi vida hay un vacío (PUNTEO 2)
Un vacío tan difícil de llenar. 


Te perdí y no me di cuenta 
Y dejarte fue un error 
Hoy me muero en el silencio 
De éste roto corazón. 
 

Necesito volverte a encontrar 
Y sentir que en tu cielo 
Se funde mi mar 
Y besarte otra vez 
Hasta que seas mía 
Hasta que seas mía. 

Necesito volverte a encontrar 
Y sentir que en tu cielo 
Se funde mi mar 
Y besarte otra vez 
Hasta que seas mía 
Hasta que seas mía. 

  SOLO
E|----9-----16-13-14-16-13----------15-----------------|
B|-7-9-9------------------14~-----9/15~-15/9~/10/9/5/5-|
G|-----------------------------------------------------|
D|2:56-------------------------------------------------|
A|-----------------------------------------------------|
E|-----------------------------------------------------|

E|------------------------------|
B|-9/15~-15/9~/15/13/18/17/15~--|
G|------------------------------|
D|------------------------------|
A|------------------------------|
E|------------------------------|  

Necesito volverte a encontrar 
Y sentir que en tu cielo 
Se funde mi mar 
Y besarte otra vez 
Hasta que seas mía 
Hasta que seas mía 

FIN: C# - B -   C#
Suggest correction
Give kudos to tab author, rate the tab!
1 2 3 4 5
comments
print report bad tab
guest
You may want to rate the tab now too:
select rating
Wanna post a correction for this tab? Suggest correction